GuitarTabsExplorer icon
GuitarTabsExplorer icon

Log in

Songbook

  • Log in to add and see bookmarks

Last visited songs

    No songs visited yet...

Dramamine by Modest Mouse

Tabs

Modest Mouse - Dramamine
 

all i got is the intro and most of that first riff
if anyone can tab the rest it would really help me out
 
intro \ main riff:
(plays in the background for a while)
 
                                          4x
|-----------------------------------------||
|----------------------------------------#||
|-----------------------------------------||
|-----------------------------------------||
|----10---------9--------7-------9-------#||
|-12----12---10---10---8---8---8---10-----||
 

first little riff:
 
|----------------|
|-------8--------|
|-9-7-9---7-9----|
|----------------|
|----------------|
|----------------|
 
verse: Chord diagramE MajorE Chord diagramD MajorD Chord diagramA augmentedA
chorus: Chord diagramE MajorE Chord diagramD MajorD Chord diagramG+G
 
E: x 7 9 9 x x
D: x 5 7 7 x x
A: 5 7 7 x x x
G: x 10 12 12 x x
 
[email protected]
Andrew
"i think i know my geography pretty damn well"

Other versions of Dramamine

Alternative guitar chords and tabs for Dramamine by Modest Mouse

VersionType
Dramamine ukuleleChords

[ Privacy | About us ]

Welcome to the guitar community

Why join and log in?
- Get songbook with favourite songs
- Get custom made front page
- Submit chords and tabs
- Submit guitar-cover videos
- Get a lot of thumbs up for your work

Songbook

Last visited songs

Site
Home
Search
Community
Submit chords

Video

No video for this page. Check out how you can submit guitar-cover videos here

Search tabs and chords

Browse by artist

A B C D E F G H I J K L M N O P Q R S T U V W X Y Z #


Menu

Search

Video

Bookmark

Login