Log in

One click and you are in

Login with Facebook Login with Google

Why sign up and log in

Guitar Tabs Explorer
Modest Mouse tabs for Cowboy dan

Guitar tabs with lyrics

Title: Cowboy Dan
Album: Lonesome Crowded West

Standard Tuning
Intro/Verses/Main Theme

During the Intro, this riff is accompaniedby harmonics, played at the
seventh fret, and bent up and down with the whammy bar.

------------------------------------------------------------------------
------------------------------------------------------------------------
------------------------------------------------------------------------
----11-12----11-12------------------------------------------------------
--9-------12-------12-11------------------------------------------------
------------------------------------------------------------------------

2nd theme

  A chord diagramF#F#       A chord diagramC#C#                A chord diagramD MajorD  A chord diagramC#C# A chord diagramD MajorD A chord diagramC#C#  A chord diagramBB
------------------------------------------------------------------------
------------------------------------------------------------------------
--11-11-11--------------------------------------------------------------
--x--x--x--11----11-11-11-11-12-11-12-11-9-9----------------------------
--9--9--9--x-----x--x--x--x--x--x--x--x--x-x----------------------------
-----------9-----9--9--9--9--10-9--10-9--7-7----------------------------

3rd theme
------------------------------------------------------------------------
------------------------------------------------------------------------
------------------------------------------------------------------------
--11----11---11----11h12/14---------------------------------------------
-----12---12----12----------11----11----11----11h12/14------------------
-------------------------------12----12----12---------------------------

------------------------------------------------------------------------
------------------------------------------------------------------------
------------------------------------------------------------------------
------------------------------------------------------------------------
--9----9----9----9h10/12---9--------------------------------------------
----10---10---10-------------10-9-10-7-9-10-12--------------------------

4th theme (solo )
------------------------------------------------------------------------
------------------------------------------------------------------------
------------------------------------------------------------------------
--11-12-14--14-12-11--9-11-12/14-14-12p11-7-----------------------------
------------------------------------------------------------------------
------------------------------------------------------------------------

Chord Variation during outro

  A chord diagramF#F#                               A chord diagramC#C#

------------------------------------------------------------------------
------------------------------------------------------------------------
--11-11-xxxx-11-11-xxxx-11-11-xxxx--------------------------------------
--x--x--xxxx-x--x--xxxx-x--x--xxxx-1111-xxxx-11-11-xxxx-11-11-----------
--9--9--xxxx-9--9--xxxx-9--9--xxxx-x-x--xxxx-x--x--xxxx-x--x------------
--------------------------------xx-9-9--xxxx-9--9--xxxx-9--9------------


This can get a bit complicated, so here's a basic frame of the song.
Listen to the album to get the rhythm and number of repititions, and
to see if I forgot to include something here.

Main theme
2nd theme
Main theme
3rd theme
4th theme (solo )
Main theme
2nd theme(Listen to song to know when to switch to the chord variation)


Questions, Comments to: scott_houle@hotmail.com

Almost there ...

Sign in to get your own page with links to favourite songs and more. You are just one click away...

Login with Facebook Login with Google