Log in

One click and you are in

Login with Facebook Login with Google

Why sign up and log in

Guitar Tabs Explorer
Modest Mouse tabs for Convenient parking

Guitar tabs

Title: Convenient Parking
Album: The Lonesome Crowded West


Standard Tuning
Bend over Intro/Verse

------------------------------------------------------------------------
------------------------------------------------------------------------
-7br--------------------------------------------------------------------
------------------------------------------------------------------------
------------------------------------------------------------------------
------------------------------------------------------------------------


Intro/Verse

------------------------------------------------------------------------
------------------------------------------------------------------------
------------------------------------------------------------------------
----------5-5-5-5-7-7-7-7-5-5-7-7-5-5-7-7-5-----------------------------
--7-7-7-7---------------------------------------------------------------
------------------------------------------------------------------------


Chorus

  A chord diagramC#C#   A chord diagramE MajorE     A chord diagramA augmentedA

------------------------------------------------------------------------
------------------------------------------------------------------------
--6-6--9-9---6-6--6-----------------------------------------------------
--6-6--9-9---7-7--7-----------------------------------------------------
--4-4--7-7---7-7--7-----------------------------------------------------
-------------5-5--5-----------------------------------------------------


I don't really have time to figure out the solo at the moment, so if
anyone wants it e-mail me, and I'll get it to you eventually. Listen to
the song for rhythm and structure. Also, there are some whammy bar bends
in later verses which are pull ups on the 7th fret harmonic on the A chord diagramG+G string


Questions, comments: scott_houle@hotmail.com

Almost there ...

Sign in to get your own page with links to favourite songs and more. You are just one click away...

Login with Facebook Login with Google