Log in

One click and you are in

Login with Facebook Login with Google

Why sign up and log in

Guitar Tabs Explorer
Modest Mouse tabs for Broke

Guitar tabs with lyrics

BROKE by MODEST MOUSE
Album: Building Nothing Out Of Something
Transcribed by Andrew Baker
andrewbaker2@msn.com

This was transcribed from a live concert version of "Broke".
It should be pretty dead on, but the album version may differ slightly.
On the album version I believe that the second part of the intro gets
played 2 times as well before carrying into the Verse.

==Intro==
E--------------------------------------------------------------------|
B-9-7----------------------------------------------------------------|
G-----9-8--------------9-8-------9-8---8---------8---8---8---8-------| X2
D--------------------9-----9---------9-------9----9---9---9---9------|
A--------------------------------------------------------------------|
E----------7------7--------------------------------------------------|


E--------------------------------------------------------------------|
B-9-7---------9p7--9p7--9p7---------9p7--9p7--9p7--------------------|
G-----9-8--------8----8----8-----------8----8----8------8-9-8 8------|
D---------9-------------------9----------------------9---------------|
A--------------------------------------------------------------------|
E--------------------------------------------------------------------|

E-------------------------------------------------------------------------------
B-9-7----------9p7--9p7--9p7---------9p7--9p7--9p7-------------------9--7------
G-----9-8---------8----8----8-----------8----8----8------8-9-8 8----------9--8-
D----------9-------------------9----------------------9------------------------9
A-------------------------------------------------------------------------------
E-------------------------------------------------------------------------------

==Verse==
E--------------------------------------------------------------------|
B-9-7----------------------------------------------------------------|
G-----9-8--------------9-8-------9-8---8---------8---8---8---8-------|
D---------9----------9-----9---------9-------9----9---9---9---9------|
A--------------------------------------------------------------------|
E-----------------7--------------------------------------------------|

Continue playing the Verse until you here: (lyrics)

"Round and round...That's right...That's right....."


The rest of the song is strumming with the [A chord diagramBB] and [A chord diagramBB add11] chords.
Play these two chords for the rest of song louder and faster
as the tempo picks up, just listen to the song for rhythm and chord
changes.

[A chord diagramBB]

E---7----
B---7----
G---8----
D---9----
A---9----
E---7----


[A chord diagramBB add11]

E---7----
B---7----
G---8----
D---9----
A---7----
E---7----

Almost there ...

Sign in to get your own page with links to favourite songs and more. You are just one click away...

Login with Facebook Login with Google