Log in

One click and you are in

Login with Facebook Login with Google

Why sign up and log in

Guitar Tabs Explorer
Modest Mouse tabs for Baby blue sedan

Guitar tabs

Title: Baby Blue Sedan
Album: Building Nothing Out Of Something

Standard Tuning

Intro/Verses

A chord diagramC majorC                               A chord diagramG+G

------------------------------------------------------------------------
------------------------------------------------------------------------
-0-------0-------0-------0----------------------------------------------
---2p0-----2p0-----2p0-----2p0---0-------0-------0-------0--------------
-------3-------3-------3-------3---2p0-----2p0-----2p0-----2p0----------
---------------------------------------3-------3-------3-------3--------


Chorus

A chord diagramC majorC                               A chord diagramG+G

-0-0-0-0-0-0-0-0-0-0-0-0-0-0-0-0-3-3-3-3-3-3-3-3-3-3-3-3-3-3-3----------
-1-1-1-1-1-1-1-1-1-1-1-1-1-1-1-1-3-3-3-3-3-3-3-3-3-3-3-3-3-3-3----------
-0-0-0-0-0-0-0-0-0-0-0-0-0-0-0-0-0-0-0-0-0-0-0-0-0-0-0-0-0-0-0----------
-2-2-2-2-2-2-2-2-2-2-2-2-2-2-2-2-0-0-0-0-0-0-0-0-0-0-0-0-0-0-0----------
-3-3-3-3-3-3-3-3-3-3-3-3-3-3-3-3-2-2-2-2-2-2-2-2-2-2-2-2-2-2-2----------
---------------------------------3-3-3-3-3-3-3-3-3-3-3-3-3-3-3----------


Thats it, listen for specifics.


Questions, comments: scott_houle@hotmail.com

Almost there ...

Sign in to get your own page with links to favourite songs and more. You are just one click away...

Login with Facebook Login with Google