Log in

One click and you are in

Login with Facebook Login with Google

Why sign up and log in

Guitar Tabs Explorer
Modest Mouse tabs for 3rd planet

Guitar tabs

Title: 3rd Planet
Album: The Moon and Antarctica

Standard Tuning
Intro Riff #1


------------------------------------------------------------------------
------------------------------------------------------------------------
------------------------------------------------------------------------
--9----12---9----12----9----12----9h10p9h10p9h10p9h10p9-----------------
----10---10---10----10---10----10---------------------------------------
------------------------------------------------------------------------


Intro Riff #2

------------------------------------------------------------------------
-----------------------------------------------------^-----------------
-----------------------------------------------------12-----------------
--9---9h10p9h10--9---9h10p9h10---9---9h10p9h10--9-----------------------
---10-10---10-----10-10---10------10-10---19------10--------------------
------------------------------------------------------------------------


Verse #1

------------------------------------------------------------------------
------------------------------------------------------------------------
------------------------------------------------------------------------
--9----12----9----12----9----12----9----12----9h10p9h10p9h10p9h10p9-----
----10----10---10----10---10----10---10----10---------------------------
------------------------------------------------------------------------


Chorus Gtr. 1

------------------------------------------------------------------------
---------7-7-7--5-5-5--5-5-5--------------------------------------------
--4-4-4--7-7-7--5-5-5--5-5-5--------------------------------------------
--5-5-5--7-7-7--5-5-5--5-5-5--------------------------------------------
--5-5-5--5-5-5--3-3-3--3-3-3--------------------------------------------
--3-3-3-----------------------------------------------------------------


Chorus Gtr. 2

------------------------------------------------------------------------
------------------------------------------------------------------------
--121212--191919--171717--171717----------------------------------------
--x-x-x---x-x-x---x-x-x---x-x-x-----------------------------------------
--101010--171717--151515--151515----------------------------------------
------------------------------------------------------------------------


Other Verses

------------------------------------------------------------------------
------------------------------------------------------------------------
---------12-------------------------------------------------------------
-------9----9--------------------------9h10p9---------------------------
---\10-----------9h10p9------7-9-7---7----------------------------------
--------------10--------10-8-------8------------------------------------


Gtr. 3 fill over verses - Use E-bow and bend with whammy bar

------------------------------------------------------------------------
------------------------------------------------------------------------
--0--\-----/---------\----------/---------------------------------------
------------------------------------------------------------------------
------------------------------------------------------------------------
------------------------------------------------------------------------


Gtr. 3 fill over Chorus - With E-bow

------------------------------------------------------------------------
------------------------------------------------------------------------
--0-------7----5-4-5-4---------0----------------------------------------
------------------------------------------------------------------------
------------------------------------------------------------------------
------------------------------------------------------------------------


Thats pretty much it. Just listen to the cd for changes and rhythm.


Questions, comments: scott_houle@hotmail.com

Almost there ...

Sign in to get your own page with links to favourite songs and more. You are just one click away...

Login with Facebook Login with Google