Log in

One click and you are in

Login with Facebook Login with Google

Why sign up and log in

Guitar Tabs Explorer
Modern Baseball bass tabs for See ya sucker

Bass tabs

-------------------------------------------------------------------------------
                 See Ya, Sucker
-------------------------------------------------------------------------------

Tuning: Standard
[Verse]
0:19
"well here goes nothing..."
G|--------------------------------------------------------------|
D|--------------------------------------------------------------|
A|---------6---6--6--6--6--6--6---------------------------------|
E|---6-6-6-------------------------6-6-6-4----4--4--4--4--4--4--|
                                       x2
G|------------------------------------------------------------|
D|------------------------------------------------------------|
A|---------6---6--6--6--6--6--6-------------------------------|
E|---6-6-6-----------------------8-8-8-6----6--6--6--6--6--6--|


[Pre-chorus]
0:39
"But I won't fuckin wait..."
G|-------------------------------------------------------------------------------|
D|-------------------------------------------------------------------------------|
A|-------------------------------------------------------------------------------|
E|---3-3-3-3-3-3-3-3-3-3-3-3-3-3-3-3--4-4-4-4-4-4-4-4-4-4-4-4-4-4-4-4-4----------|

G|-----------------------------------------------------------------------------------------------------|
D|-----------------------------------------------------------------------------------------------------|
A|-----------------------------------------------------------------------------------------------------|
E|---11-11-11-11-11-11-11-11-11-11-11-11-11-11-11-11-11-11-11-11-11-11-11-11-11-11-11-11-11-11-11-11---|

G|-------------------------------------------------------------------------------|
D|-------------------------------------------------------------------------------|
A|-------------------------------------------------------------------------------|
E|---3-3-3-3-3-3-3-3-3-3-3-3-3-3-3-3--4-4-4-4-4-4-4-4-4-4-4-4-4-4-4-4-4----------|

G|-------------------------------------------------------------------------------|
D|-------------------------------------------------------------------------------|
A|---------------------------------------------------10--------------------------|
E|---11-11-11-11-11-11-11-11-11-11-11-11-11-11-11-11-----11-11-11-11-11-11-11----|

G|-------------------------------------------|
D|-------------------------------------------|
A|-------------------------------------------|
E|---10-10-10-10-10-10-10-10-10-10-10-10-8---|


[Chorus]
1:00
"On the corner of canal..."
G|------------------------------------------------------------------------------------------------------|
D|------------------------------------------------------------------------------------------------------|
A|---6-6-6-6-6-6-6-6-6-6-6-6-----------------------------------------5-5-5-5-5-5-5-5-5-5-5-5-6-6-6-6----|
E|---------------------------6-6-6-6-8-8-8-8-8-8-8-8-8-8-8-8-6-6-6-6------------------------------------|
                                                     x2
G|---------------------------------------|
D|---------------------------------------|
A|---------------------------------------|
E|---4-4-4-4-4-4-4-4-4-4-4-4-6-6-6-6-----|


[Post Chorus]
1:29
G|------------------------------------------------------------|
D|------------------------------------------------------------|
A|---------6---6--6--6--6--6--6-------------------------------|
E|---6-6-6------------------------6-6-6-4---4--4--4--4--4--4--|

G|-------------------------------------------------------------|
D|-------------------------------------------------------------|  x2
A|---------6---6--6--6--6--6--6---------6---6--6--6--6--6------|
E|---6-6-6------------------------6-6-6------------------------|


[Chorus]
1:39
"On the corner of canal..."
G|------------------------------------------------------------------------------------------------------|
D|------------------------------------------------------------------------------------------------------|
A|---6-6-6-6-6-6-6-6-6-6-6-6-----------------------------------------5-5-5-5-5-5-5-5-5-5-5-5-6-6-6-6----|
E|---------------------------6-6-6-6-8-8-8-8-8-8-8-8-8-8-8-8-6-6-6-6------------------------------------|
                                                     x2
G|---------------------------------------|
D|---------------------------------------|
A|---------------------------------------|
E|---4-4-4-4-4-4-4-4-4-4-4-4-6-6-6-6-----|


G|------------------------------------------------------------|
D|------------------------------------------------------------|
A|---------6---6--6--6--6--6--6-------------------------------|
E|---6-6-6------------------------6-6-6-8---8--8--8--8--8--8--|

G|-------------------------------------------------------------|
D|-------------------------------------------------------------|
A|---------5---5--5--5--5--5--5--------------------------------|
E|---6-6-6------------------------6-6-6-4----4--4--4--4--4--4--|

Almost there ...

Sign in to get your own page with links to favourite songs and more. You are just one click away...

Login with Facebook Login with Google