Log in

One click and you are in

Login with Facebook Login with Google

Why sign up and log in

Guitar Tabs Explorer
Modern Baseball bass tabs for Note to self

Bass tabs with lyrics

  • Difficulty: Intermediate
Tuning: Standard (E A D G)

♫ Intro: (0:00)

  1 + 2 + 3 + 4 +  1 + 2 + 3 + 4 +  1 + 2 + 3 + 4 +  1 + 2 + 3 + 4 +
G|-----------------|-----------------|-----------.---.-|-----------------|
D|-----------------|-----------------|---------3-2---0-|-----------------|
A|---------------.-|-----------------|-----------------|---3-.-----------|
E|-1-----1-1-----1-|---3-3---3---3-0-|-1---------------|-----3-----------|

G|-----------------|-----------------|-----------------|-----------------|
D|-----------------|-----------------|-----------------|-----------------|
A|---------------.-|-----------------|-----------------|---------.-------|
E|-1-----1-1-----1-|---3-3---3---3-3/|-5-5-5-5-5-5-5-5-|-4-4-4-4-4-------|


♫ Verse 1: (0:13, "holt's above my hideout...")

  1 + 2 + 3 + 4 +  1 + 2 + 3 + 4 +  1 + 2 + 3 + 4 +  1 + 2 + 3 + 4 +
G|-----------------|-----------------|-----------------|-----------------|
D|-----------------|-----------------|-----------------|-----------------|
A|-----------------|-----------------|-----------------|-----------------|
E|-1---1-1-1-1-1-/-|-5-5-5---5-5-5-5-|-3---3-3-3-3-3-3-|-1-1-1-1-1-1-1-1-|

G|-----------------|-----------------|-----------------|-----------------|
D|-----------------|-----------------|-----------------|-----------------|
A|-----------------|-----------------|-----------------|-----------------|
E|-1-1-1-1-1-1-1-1/|-5-5-5-7---7-8-\-|-3-3-3/8---8-7-7-|-1-1-1-1-1-1-1-1-|

  1 + 2 + 3 + 4 +  1 + 2 + 3 + 4 +  1 + 2 + 3 + 4 +  1 + 2 + 3 + 4 +
G|-----------------|-----------------|-----------------|-----------------|
D|-----------------|-----------------|-----------------|-----------------|
A|-----------------|-----------------|-----------------|-----------------|
E|-1-1-1-1-1-1-1-/-|-5-5-5-5-5-5-5-5-|-3-3-3-3-3-3-3-3-|-1-1-1-1-1-1-1-1-|

G|-----------------|-----------------|-----------------|-----------------|
D|-----------------|-----------------|-----------------|-----------------|
A|-----------------|-----------------|-----------------|-----------------|
E|-1-1-1-1-1-1-1-1/|-5-5-5-7---7-8-\-|-3-3-3/8---8-7-7-|-2-2-2-2-2-2-2-2-|

  1 + 2 + 3 + 4 +  1 + 2 + 3 + 4 +  1 + 2 + 3 + 4 +  1 + 2 + 3 + 4 +
G|-----------------|-----------------|-----------------|-----------------|
D|-----------------|-----------------|-----------------|-----------------|
A|-----------------|-----------------|-----------------|-----------------|
E|-----------------|-----------------|-----------------|-----------------|

G|-----------------|-----------------|-----------------|-----------------|
D|-7-7-7-7-7-7-7-7-|-9-9-9-9-9-9-9-9-|-10-9--7/9--7----|-----------------|
A|-----------------|-----------------|---------------10|-8\--------------|
E|-----------------|-----------------|-----------------|-----------------|

Instrumental: (0:56)

  1 + 2 + 3 + 4 +  1 + 2 + 3 + 4 +  1 + 2 + 3 + 4 +  1 + 2 + 3 + 4 +
G|-----------------|-----------------|-----------------|-----------------|
D|-----------------|-----------------|-----------------|-----------------|
A|-----------------|-----------------|-----------------|-----------------|
E|-1-1-1-1-1-1-1-1/|-5-5-5-5-5-5-5-5-|-3-3-3-3-3-3-3-3-|-1-1-1-1-1-1-1-1-|

G|-----------------|-----------------|-----------------|-----------------|
D|-----------------|-----------------|-----------------|-----------------|
A|-----------------|-----------------|-----------------|-----------------|
E|-1-1-1-1-1-1-1-1/|-5-5-5-5-5-5-5-5-|-3-3-3-3-3-3-3-3-|-1-1-1-1-3-3-3-3-|


♫ Verse 2: (1:10, "your hands are out and i see...")

  1 + 2 + 3 + 4 +  1 + 2 + 3 + 4 +  1 + 2 + 3 + 4 +  1 + 2 + 3 + 4 +
G|-----------------|-----------------|-----------------|-----------------|
D|-----------------|-----------------|-----------------|-----------------|
A|-.---.-----------|-.---.-----------|-.---.-----------|-----.-----------|
E|-5---5-------5-5-|-5---5-------5-\-|-1---1-------1-0-|-1-0-1-------1-/-|

G|-----------------|-----------------|-----------------|-----------------|
D|-----------------|-----------------|-----------------|-----------------|
A|-.---.-----------|-.---.-----------|-.---.-----------|-.---.-----------|
E|-3---3-------3-3-|-3---3-------3-/-|-4---4-------4-4-|-4---4-------4-4-|

  1 + 2 + 3 + 4 +  1 + 2 + 3 + 4 +  1 + 2 + 3 + 4 +  1 + 2 + 3 + 4 +
G|-----------------|-----------------|-----------------|-----------------|
D|-----------------|-----------------|-----------------|-----------------|
A|-----------------|-----------------|-----------------|-----------------|
E|-5-5-5-5-5-5-5-5-|-5-5-5-5-5-5-5-5-|-6-6-6-6-6-6-6-6-|-6-6-6-6-6-6-6-6\|

G|-----------------|-----------------|-----------------|-----------------|
D|-----------------|-----------------|-----------------|-----------------|
A|-----------------|-----------------|-8-8-8-8-8-8-8-8-|-8-8-8-8-8-8-8\--|
E|-1-1-1-1-1-1-1-1-|-1-1-1-1-1-1-1-1/|-----------------|-----------------|


♫ Chorus: (1:39, "where i wanna be still seems a thousand miles away...")

  1 + 2 + 3 + 4 +  1 + 2 + 3 + 4 +  1 + 2 + 3 + 4 +  1 + 2 + 3 + 4 +
G|-----------------|-----------------|-----------------|-----------------|
D|-----------------|-----------------|-----------------|-----------------|
A|-3-3-3-3-3-3-3-3-|-3-3-3-3-3-3-3-3-|-----------------|-----------------|
E|-----------------|-----------------|-3-3-3-3-3-3-3-3-|-3-3-3-3-3-3-3-3/|

G|-----------------|-----------------|-----------------|------------------|
D|-----------------|-----------------|-----------------|------------------|
A|-----------------|-----------------|-------8-8-8-7-8-|-10-8-8-7---8-7-7-|
E|-5-5-5-5-5-5-5-5-|-3-3-3-3-3-3-3-3-|-1-1-1/----------|------------------|

  1 + 2 + 3 + 4 +  1 + 2 + 3 + 4 +  1 + 2 + 3 + 4 +  1 + 2 + 3 + 4 +
G|-----------------|-----------------|-----------------|-----------------|
D|-----------------|-----------------|-----------------|-----------------|
A|-3-3-3-3-3-3-3-3-|-3-3-3-5---5-3\2-|-----------------|-----------------|
E|-----------------|-----------------|-3-3-3-3-3-3-3-3-|-3-3-3-2-3-3-4-4-|

G|-----------------|-----------------|-----------------|-----------------|
D|-----------------|-----------------|-----------------|-----------------|
A|-----------------|-7-7-7-7-7-7-7-7-|-8-8-8-8-8-8-8-8-|-8-8-8-8-8-8-8\--|
E|-5-5-5-5-5-5-5-5-|-----------------|-----------------|-----------------|


♫ Instrumental: (2:07)

  1 + 2 + 3 + 4 +  1 + 2 + 3 + 4 +  1 + 2 + 3 + 4 +  1 + 2 + 3 + 4 +
G|-----------------|-----------------|-----------------|-----------------|
D|-----------------|-----------------|-----------------|-----------------|
A|-----------------|-----------------|-----------------|-----------------|
E|-5---5---5---5---|-5---5---7---8-\-|-1---1---1---0---|-1---1---1---1---|

G|-----------------|-----------------|-----------------|-----------------|
D|-----------------|-----------------|-----------------|-----------------|
A|-----------------|-----------------|-----------------|-----------------|
E|-3---3---3---3---|-3---3---3---5---|-1---1---1---1---|-1---1---0---0-/-|


♫ Bridge: (2:21, "drunk and worthless, spewing bullshit...")

  1 + 2 + 3 + 4 +  1 + 2 + 3 + 4 +  1 + 2 + 3 + 4 +  1 + 2 + 3 + 4 +
G|-----------------|-----------------|-----------------|-----------------|
D|-----------------|-----------------|-----------------|-----------------|
A|-----------------|-----------------|-----------------|-----------------|
E|-5---5---5---5-5-|-5---5---7---8-\-|-1---1---1---1-1-|-1---1---1---0---|

G|-----------------|-----------------|-----------------|-----------------|
D|-----------------|-----------------|-----------------|-----------------|
A|-----------------|-----------------|-----------------|-----------------|
E|-3---3---3---3-3-|-3---3---3---5-\-|-1---1---1---1-0-|-1---1---1---0---|

  1 + 2 + 3 + 4 +  1 + 2 + 3 + 4 +  1 + 2 + 3 + 4 +  1 + 2 + 3 + 4 +
G|-----------------|-----------------|-----------------|-----------------|
D|-----------------|-----------------|-----------------|-----------------|
A|-----------------|-----------------|-------3---------|-----------------|
E|-5---5-5-5-5-5-5-|-5-5-5-5-5-5-5-\-|-1-1-1---1-1-1-1-|-1-1-1-1-1-1-1-1-|

G|-----------------|-----------------|-----------------|-----------------|
D|-----------------|-----------------|-----------------|-----------------|
A|---------.---.---|-----------------|-------3---------|-----------------|
E|-3---3-3-3---3---|-3-3-3-3-3-3-3-\-|-1-1-1---1-1-1-1-|-3-3-3-3-3-3-3-3-|

  1 + 2 + 3 + 4 +  1 + 2 + 3 + 4 +  1 + 2 + 3 + 4 +  1 + 2 + 3 + 4 +
G|-----------------|-----------------|-----------------|-----------------------|
D|-----------------|-----------------|-----------------|-----------------------|
A|-----------------|-----------------|-----------------|-------------------7-8-|
E|-5-5-5-5-5-5-5-5-|-7-7-7-7-7-7-7-7-|-8-8-8-8-8-8-8-8-|-10-10-10-10-10-10-----|

G|-------------------------|-------------------------|-----------------|--------------------|
D|-------------------------|-------------------------|-----------------|--------------------|
A|-10-10-10-10-10-10-10-10-|-10-10-10-10-10-10-10-10-|-9-9-9-9-9-9-9-9-|-9-9-9-9-9-10-10-10-|
E|-------------------------|-------------------------|-----------------|--------------------|

  1 + 2 + 3 + 4 +  1 + 2 + 3 + 4 +  1 + 2 + 3 + 4 +  1 + 2 + 3 + 4 +
G|-----------------|-----------------|-----------------|-----------------|
D|-----------------|-----------------|-----------------|-----------------|
A|-8-8-8-8-8-8-8-8-|-8-8-8-8-8-8-8-8-|-8-8-8-8-8-8-8-8-|-8-8-8-8-8-8-8-8-|
E|-----------------|-----------------|-----------------|-----------------|


♫ Bridge: (3:11, "where i wanna be still seems a thousand miles away...")

  1 + 2 + 3 + 4 +  1 + 2 + 3 + 4 +  1 + 2 + 3 + 4 +  1 + 2 + 3 + 4 +
G|-----------------|-----------------|-----------------|-----------------|
D|-----------------|-----------------|-----------------|-----------------|
A|-----------------|-----------------|-----------------|-----------------|
E|-----------------|-----------------|-3-3-3-3-3-3-3-3-|-3-3-3-3-3-3-3-3-|

G|-----------------|-----------------|-----------------|-----------------|
D|-----------------|-----------------|-------3-3-3-2-3-|-5-3-3-2---3-2-2-|
A|-----------------|-----------------|-----3-----------|-----------------|
E|-5-5-5-5-5-5-5-5-|-3-3-3-3-3-3-3-3-|-1-1-------------|-----------------|

  1 + 2 + 3 + 4 +  1 + 2 + 3 + 4 +  1 + 2 + 3 + 4 +  1 + 2 + 3 + 4 +
G|-----------------|-----------------|-----------------|-----------------|
D|-----------------|-----------------|-----------------|-----------------|
A|-3-3-3-3-3-3-3-3-|-3-3-3-5---5-3\2-|-----------------|---------.-------|
E|-----------------|-----------------|-3-3-3-3-3-3-3-3-|-3-3-3-3-3-------|

G|-----------------|-----------------|-----------------|-----------------|-----------------|
D|-----------------|-----------------|-----------------|-----------------|-----------------|
A|-----------------|-----------------|-----------------|-----------------|-----------------|
E|-5---5---5---5-5-|-3---3---3-3-3---|-1-1-1-1-1-1-1-1-|-1-1-1-1-1-1-1-1-|-1---------------|


************************************

| .  Staccato
| /  Slide up
| \  Slide down

************************************

Almost there ...

Sign in to get your own page with links to favourite songs and more. You are just one click away...

Login with Facebook Login with Google