Log in

One click and you are in

Login with Facebook Login with Google

Why sign up and log in

Guitar Tabs Explorer
Moby tabs for We are all made of stars

Guitar tabs

Composition: We are all made of stars
Transcription: Cory Mallory


Intro:

Guitar 1 (w/wah)

E-----------------------------------------------------------------------
B-----------------------------------------------------------------------
G-----------------------------------------------------------------------
D-----------------------------------------------------------------------
A-7--Repeated (w/ some palm muting) at 1/8 notes------------------------
E-0---------------------------------------------------------------------

Then Guitar 2

A chord diagramE7E7 picked not strummed

E-----------------------------------------------------------------------
B-----------------------------------------------------------------------
G-------7------7--------------------------------------------------------
D-----9------9---9--etc. (Play around with it)--------------------------
A---7------7------------------------------------------------------------
E-0---------------------------------------------------------------------


Chorus

Guitar 1
    A chord diagramD MajorD                          A chord diagramG+G
E-----------------------------------------------------------------------
B-----------------------------------------------------------------------
G--7-7-7-7-7-7-7-7------------4-4-4-4-4-4-4-4---------------------------
D--7-7-7-7-7-7-7-7--(X 2)-----5-5-5-5-5-5-5-5--(x 2)--------------------
A--5-5-5-5-5-5-5-5------------5-5-5-5-5-5-5-5---------------------------
E--5-5-5-5-5-5-5-5------------3-3-3-3-3-3-3-3---------------------------

Guitar 2

E-----------------------------------------------------------------------
B-----------------------------------------------------------------------
G--12-11-12-14~~--12-11----12-11-12-14~~--12-11----12-11-12-14~~--12-11/
D-----------------------------------------------------------------------
A-----------------------------------------------------------------------
E-----------------------------------------------------------------------

E-----------------------------------------------------------------------
B-----------------------------------------------------------------------
G-16--16-12-7--9-7--Repeat or go into verse ----------------------------
D-----------------------------------------------------------------------
A-----------------------------------------------------------------------
E-----------------------------------------------------------------------

Almost there ...

Sign in to get your own page with links to favourite songs and more. You are just one click away...

Login with Facebook Login with Google