Log in

One click and you are in

Login with Facebook Login with Google

Why sign up and log in

Guitar Tabs Explorer
Moby tabs for South side

Guitar tabs with lyrics

Tab by: Max Perenchio (Maxacaster@aol.com)


///intro\\\ hold this A chord diagramE5E5 chord and swell the volume up and down
E-------
B-------
G-------
D-2-----
A-2-----
E-0-----

(this is gwen's "aahh.." part arranged for guitar)
E---------------------
B---------------------
G--9~8~---9~8~~6------
D---------------------
A---------------------
E---------------------

///verse1\\\-no guitar

///chorus\\\(i think it is just power chords but it could just be the
bottom string) repeat x4
E--------------------------------------
B--------------------------------------
G--------------------------------------
D---2-----------6-------7-----------2--
A---2-----------6-------7-----------2--
E---0-----------4-------5-----------0--
  "here we are now goin to the east side etc...)

///verse2\\\ (heres the guitar fill that comes in, with a steel slide)
E-------------------------------------------
B-------------------------------------------
G--/13~~13\11-11/13-13~~13~~13/16-16\13-13--
D-------------------------------------------
A-------------------------------------------
E-------------------------------------------
repeat 2 1/2 times

///chorus\\\ same as last chorus

///bridge\\\(Not sure about lyrics)
E----------------------------0---
B----------------------------0---
G----------------------------1---
D--9----------7--------------2---
A--9----------7--------------2---
E--7----------5--------------0---
(    love and darkness in my side ? )

///guitar solo\\\ (^=1/2 step bend,^^=full step bend,p=pulloff,h=hammeron)
E------------------------------------------------------
B------------------------------------------------------
G--11^-12p11p9-----------------9^9^9^9^9^9^9^----------
D--------------11-11-9h11-11-11--------------11-11-11--
A------------------------------------------------------
E------------------------------------------------------

E---------------------------------------- ? ? ? ? ? ? ? ?
B---------------------------------------- ? ? ? ? ? ? ? ?
G----------9---9-11^11^11^11^11^11^-9---- ? ? ? ? ? ? ? ?
D------9h11--11-----------------------11- ? ? ? ? ? ? ? ?
A--9h11---------------------------------- ? ? ? ? ? ? ? ?
E---------------------------------------- ? ? ? ? ? ? ? ?

E-----------------------------------------
B-----------------------------------------
G----------9---9-11^11^11^11^11^11^-9-----
D------9h11--11-----------------------11--
A--9h11-----------------------------------
E-----------------------------------------

E------------------------------------- ? ? ? ? ? ? ?
B--12p9-9-12p-9-9-12p9-9-12p9-9-12p9-9 ? ? ? ? ? ? ?
G------------------------------------- ? ? ? ? ? ? ?
D------------------------------------- ? ? ? ? ? ? ?
A------------------------------------- ? ? ? ? ? ? ?
E------------------------------------- ? ? ? ? ? ? ?
not complete yet, but the parts that are complete are really accurate

///chorus riff x2\\\

///outro\\\
E----------------------------------------
B----------------------------------------
G--9/11-11/13~13~13-13-13-13p11-11-11\9--
D----------------------------------------
A----------------------------------------
E----------------------------------------

E------------------------------------------
B------------------------------------------
G--9/11-11/13~13~13-13-13-13/14-14-4/16-16-
D------------------------------------------
A------------------------------------------
E------------------------------------------

TONS of vibrato here
E---------------------------------
B---------------------------------
G-----------~~~~~~~~~~~~~~~~~~~~~~
D---13~~~~~12~~~~~~~~~~~~~~~~~~~~~
A-----------~~~~~~~~~~~~~~~~~~~~~~
E---------------------------------
VIIIIIBBBBRRAAATTTOOOOO~~~~~~~~~~~

Almost there ...

Sign in to get your own page with links to favourite songs and more. You are just one click away...

Login with Facebook Login with Google