Log in

One click and you are in

Login with Facebook Login with Google

Why sign up and log in

Guitar Tabs Explorer
Mix Up tabs for Amazonie

Guitar tabs with lyrics

Song/Titre: Amazonie
Artist/artiste: Mix up
Album: "Les enfants du Gondwana"
Genre: Reggae


Guitar tuning: A chord diagramE MajorE A chord diagramA augmentedA A chord diagramD MajorD A chord diagramG+G A chord diagramBB A chord diagramE MajorE



Couplets/Verse:

A chord diagramA augmentedA                        A chord diagramD MajorD                             A chord diagramA augmentedA
        A chord diagramD MajorD
Ce matin-là...      Je me baignais...       En Amazonie...


Refrain/chorus:

A chord diagramE MajorE                     A chord diagramE MajorE                A chord diagramE MajorE                A chord diagramE MajorE
A chord diagramD MajorD                A chord diagramD MajorD              A chord diagramD MajorD              A chord diagramD MajorD
Ce jour...
J'ai vu l'éco-système...




Riff intro basse/bass intro riff:

|------------------------------
|------------------------------
|------------------------------
|-----2\9-7-5-----------------
|-------------7----------------
|---5-----------5----5---------



Riff intro guitare/guitar intro riff:

|-----9h10-9---------------------------------------------
|--10---------------10h12-10----------------------------
|----------------9-----------------------------------------
|------------------------------11h12-11------------------
|---------------------------------------11h12-11---------
|----------------------------------------------------------

|--------10-11p10-----------------------------------------------
|-9----9----------9---------5-7p5------------2-3p2-------------
|---10--------------10----6-------7-4-6----2-------2----2--2---
|-----------------------7----------------2-----------2------------
|------------------------------------------------------------------
|------------------------------------------------------------------


Fin intro et début chant/intro end and verse start:

|-5----2---2--0--0--------------0---5-2---0p2---5-5--------
|---5----2-------------3~-------------------------------------
|---------------------------------------------------------------
|---------------------------------------------------------------
|---------------------------------------------------------------
|---------------------------------------------------------------


h: hammer on
p: pulling off
~: vibrato
\: glissando/slide


Tablature par Fabien BRAMARD. Il s'agit uniquement de mon propre
travail; en aucun cas cela n'est

tiré d'un recueil de tablatures du commerce.

Tabbed by Fabien BRAMARD. This is all my own work and it's not coming
from a songbook (and

therefore may contain errors!!)


Pour toute remarque/suggestion/complément: fbramard@free.fr

In case you'd like to tell me some changes/comments/add some parts:
fbramard@free.fr

Almost there ...

Sign in to get your own page with links to favourite songs and more. You are just one click away...

Login with Facebook Login with Google