Log in

One click and you are in

Login with Facebook Login with Google

Why sign up and log in

Guitar Tabs Explorer
Mitski bass tabs for Washing machine heart

Bass tabs

Tuning: Standard (E A D G)

Drum Into No Bass
G|-------------------------------|
D|-------------------------------|
A|-------------------------------|
E|-------------------------------|

                "Toss your dirty shoes in my washing
G|---------------------------------------------------------------------------|
D|---------------------------------------------------------------------------|
A|-4-4-4-4-4-4-4-4-4-4-4-4-4-4-4-4--4-4-4-4--0-0-0-0--5-5-5-5--0-0-0-0-------|
E|---------------------------------------------------------------------------|

 machine heart baby bang it up inside. I'm not wearing my usual lipstick, I thought
G|----------------------------------------------------------------------------------|
D|-2-2-2-2--4-4-4-4--0-0-0-0-----------------------------------------------2-2-2-2--|
A|----------------------------0-0-0-0--4-4-4-4--0-0-0-0--5-5-5-5--0-0-0-0-----------|
E|----------------------------------------------------------------------------------|

 maybe we would kiss tonight. Baby won't you kiss me already and toss your
G|---------------------------------------------------------------------------|
D|-4-4-4-4-------------------------------------------------------------------|
A|----------2-2-2-2--0-0-0-0-----------------------------5-5-5-5--4-4-4-4----|
E|----------------------------2-2-2-2--0-0-0-0--5-5-5-5----------------------|

 dirty shoes in my washing machine heart baby bang it up inside."
G|---------------------------------------------------------------------------|
D|----------------------------2-2-2-2--4-4-4-4--0-0-0-0----------------------|
A|-0-0-0-0--5-5-5-5--0-0-0-0-----------------------------0-0-0-0--4-4-4-4----|
E|---------------------------------------------------------------------------|

 Interlude                       "Baby though I've
G|---------------------------------------------------------------------------|
D|---------------------------------------------------------------------------|
A|-0-0-0-0--5-5-5-5--0-0-0-0-0-0-0-0--5-5-5-5--0-0-0-0-----------------------|
E|------------------------------------------------------2-2-2-2--0-0-0-0-----|

 closed my eyes   I know who you pretend I am     I know who you
G|---------------------------------------------------------------------------|
D|---------------------------------------------------------------------------|
A|----------2-2-2-2--4-4-4-4--0-0-0-0--5-5-5-5--0-0-0-0--4-4-4-4--0-0-0-0----|
E|-5-5-5-5-------------------------------------------------------------------|

 pretend I am.
G|---------------------------------------------------------------------------|
D|---------------------------------------------------------------------------|
A|-5-5-5-5--0-0-0-0----------------------------------------------------------|
E|---------------------------------------------------------------------------|

 X3
 (So) do mi ti            why not me?
G|---------------------------------------------------------------------------|
D|---------------------------------------------------------------------------|
A|-2-2-2-2-2-2-2-2------------------------------------5-5-5-5-5-5-5-5--------|
E|------------------0-0-0-0-0-0-0-0--3-3-3-3-3-3-3-3-------------------------|

 Why not me "
G|---------------------------------------------------------------------------|
D|---------------------------------------------------------------------------|
A|-1-1-1-1-1-1-1-1--4-4-4-4-4-4-4-4------------------------------------------|
E|---------------------------------------------------------------------------|


Outro:

G|---------------------------------------------------------------------------|
D|---------------------------------------------------------------------------|
A|----------------------------5-5-5-5--4-4-4-4--0-0-0-0--5-5-5-5--0-0-0-0----|
E|-2-2-2-2--0-0-0-0--5-5-5-5-------------------------------------------------|

G|---------------------------------------------------------------------------|
D|-2-2-2-2--4-4-4-4--0-0-0-0-------------------------------------------------|
A|----------------------------0-0-0-0-0-0-0-0-0-0-0-0------------------------|
E|---------------------------------------------------------------------------|


************************************

************************************

Almost there ...

Sign in to get your own page with links to favourite songs and more. You are just one click away...

Login with Facebook Login with Google