Log in

One click and you are in

Login with Facebook Login with Google

Why sign up and log in

Guitar Tabs Explorer
Mitski bass tabs for I bet on losing dogs

Bass tabs

Verse:
Bass comes in at 0:19

G|---------------------------------------------------------------------------|
D|---------------------------------------------------------------------------|
A|---------------------------------------------------------------------------|
D|--7------9---4-----7--2--9--0----------------------------------------------|
Hold the 7 for one measure before going two half measure lengths for the next notes.

0:31
G|---------------------------------------------------------------------------|
D|---------------------------------------------------------------------------|
A|---------------------------------------------------------------------------|
D|--2-2-2-2--7-7-7-7--9-9-9-9--4-4-4-4---------------------------------------|

G|---------------------------------------------------------------------------|
D|---------------------------------------------------------------------------|
A|---------------------------------------------------------------------------| x3
D|--7-7-7-7--2-2-2-2--9-9-9-9--4-4-4-4---------------------------------------|

G|---------------------------------------------------------------------------|
D|---------------------------------------------------------------------------|
A|---------------------------------------------------------------------------|
D|--7-7-7-7--2-2-2-2--9-9-9-9--0-0-0-0---------------------------------------|

Interlude:
0:59-1:28
G|---------------------------------------------------------------------------|
D|---------------------------------------------------------------------------|
A|---------------------------------------------------------------------------|
D|--7-7-7-7-7-7-7-7--9-9-9-9--2-2-2-2-2-2-2-2--------------------------------|

G|---------------------------------------------------------------------------|
D|---------------------------------------------------------------------------|
A|---------------------------------------------------------------------------|
D|--9-9-9-9--2-2-2-2-2-2-2-2--8-8-8-8--7-7-7-7-7-7-7-7-----------------------|

G|---------------------------------------------------------------------------|
D|---------------------------------------------------------------------------|
A|---------------------------------------------------------------------------|
D|--6-6-6-6--4-4-4-4--2-2-2-2--9-9-9-9-2-2-2-2-2-2-2-2-----------------------|

G|---------------------------------------------------------------------------|
D|---------------------------------------------------------------------------|
A|---------------------------------------------------------------------------|
D|--9-9-9-9--2-2-2-2-2-2-2-2-------------------------------------------------|


Chorus/Outro:
1:29-2:50
G|---------------------------------------------------------------------------|
D|---------------------------------------------------------------------------|
A|---------------------------------------------------------------------------|
D|--10-10-10-10--3-3-3-3-3-3-3-3-3-3-3-3-3-3-3-3-----------------------------|

G|---------------------------------------------------------------------------|
D|---------------------------------------------------------------------------|
A|---------------------------------------------------------------------------|
D|--3-3-3-3--8-8-8-8--10-10-10-10--5-5-5-5-----------------------------------|


G|---------------------------------------------------------------------------|
D|---------------------------------------------------------------------------|
A|---------------------------------------------------------------------------| x10
D|--8-8-8-8--3-3-3-3--10-10-10-10--5-5-5-5-----------------------------------|

Almost there ...

Sign in to get your own page with links to favourite songs and more. You are just one click away...

Login with Facebook Login with Google