Francis Forever by Mitski

Francis Forever bass tab by Mitski

Bass tabs

  • Difficulty: Beginner
Tuning: Drop D

Intro:
G|-----------------|-----------------|
D|-----------------|-----------------|
A|-----------------|-----------------|
D|-0-0-0-0-0-0-0-0-|-0-0-0-0-0-0-0-0-|



Verse:
    “I don’t know what do without you”...
G|-----------------|-----------------|
D|-----------------|-----------------| x3
A|-----------------|-2-2-2-2-0-0-0-0-|
D|-4-4-4-4-0-0-0-0-|-----------------|


Pre-Chorus:
 “But I’m writing this at 3am”
G|-----------------|-----------------|
D|-----------------|-----------------|
A|-----------------|-----------------|
D|-4-4-4-4-5-5-5-5-|-7-7-7-7-0-0-0-0-|


Chorus:
 "I don’t need the world to see"...
G|-----------------|-----------------|-----------------|-----------------|
D|-----------------|-----------------|-----------------|-----------------|
A|-----------------|-----------------|-----------------|-----------------|
D|-5-5-5-5-7-7-7-7-|-0-0-4-4-5-5-5-5-|-5-5-5-5-7-7-7-7-|-0-0-0-0-4-4-4-4-|

G|-----------------|-----------------|-----------------|
D|-----------------|-----------------|-----------------|
A|-----------------|-----------------|-----------------|
D|-5-5-5-5-7-7-7-7-|-0-0-4-4-5-5-5-5-|-5-5-5-5-7-7-7-7-|


Post-Chorus:
G|-----------------|-----------------|-----------------|-----------------|
D|-----------------|-----------------|-----------------|-----------------|
A|-----------------|-----------------|-----------------|-----------------|
D|-4-4-0-0-5-5-0-0-|-5-5-5-5-0-0-0-0-|-9-9-0-0-9-9-0-0-|-7-7-7-7-0-0-4-4-|

G|-----------------|-----------------|-----------------|-----------------|---------|
D|-----------------|-----------------|-----------------|-----------------|---------|
A|-----------------|-----------------|-----------------|-----------------|---------|
D|-4-4-0-0-4-4-0-0-|-5-5-5-5-0-0-0-0-|-9-9-0-0-9-9-0-0-|-7-7-7-7-7-7-7-7-|-7-7-7-7-|


Verse:
 “On sunny days I go out walking”...
G|-----------------|-----------------|
D|-----------------|-----------------| x3
A|-----------------|-2-2-2-2-0-0-0-0-|
D|-4-4-4-4-0-0-0-0-|-----------------|

Pre-Chorus:
 "I miss you more than anything"
G|-----------------|-----------------|
D|-----------------|-----------------|
A|-----------------|-----------------|
D|-4-4-4-4-5-5-5-5-|-7-7-7-7-0-0-0-0-|


Chorus:
 "I don’t need the world to see"...
G|-----------------|-----------------|-----------------|-----------------|
D|-----------------|-----------------|-----------------|-----------------|
A|-----------------|-----------------|-----------------|-----------------|
D|-5-5-5-5-7-7-7-7-|-0-0-4-4-5-5-5-5-|-5-5-5-5-7-7-7-7-|-0-0-0-0-4-4-4-4-|

G|-----------------|-----------------|-----------------|-----------------|
D|-----------------|-----------------|-----------------|-----------------|
A|-----------------|-----------------|-----------------|-----------------|
D|-5-5-5-5-7-7-7-7-|-0-0-4-4-5-5-5-5-|-5-5-5-5-7-7-7-7-|-2-2-2-2-2-2-2-2-|


Bridge:
"And autumn comes when you’re not yet done"...
G|-----------------|-----------------|-----------------|-----------------|
D|-----------------|-----------------|-----------------|-----------------|
A|-----------------|-----------------|-----------------|-----------------|
D|-5-5-5---7-7-7---|-0-0-4-4-5-5-5-5-|-5-5-5-5-7-7-7-7-|-0-0-0-0-4-4-4-4-|

G|-----------------|-----------------|-----------------|
D|-----------------|-----------------|-----------------|
A|-----------------|-----------------|-----------------|
D|-5-5-5-5-7-7-7-7-|-0-0-4-4-5-5-5-5-|-5-5-5-5-7-7-7-7-|


Outro:
G|-----------------|-----------------|-----------------|-----------------|
D|-----------------|-----------------|-----------------|-----------------|
A|-----------------|-----------------|-----------------|-----------------|
D|-4-4-0-0-5-5-0-0-|-5-5-5-5-0-0-0-0-|-9-9-0-0-9-9-0-0-|-7-7-7-7-0-0-4-4-|

G|-----------------|-----------------|-----------------|-----------------|
D|-----------------|-----------------|-----------------|-----------------|
A|-----------------|-----------------|-----------------|-----------------|
D|-4-4-0-0-4-4-0-0-|-5-5-5-5-0-0-0-0-|-9-9-0-0-9-9-0-0-|-7-7-7-7-7-7-7---|

Find guitar tabs and chords

A B C D E F G H I J K L M N O P Q R S T U V W X Y Z #