GuitarTabsExplorer icon
GuitarTabsExplorer icon

Log in

Songbook

  • Log in to add and see bookmarks

Last visited songs

    No songs visited yet...

A Pearl by Mitski

Bass tabs

ğŸŽ¸ Verse 1:

Enter at second "you're growing tired of me" at 0:14

G|-5-------------------------------------------------------------------------|
D|------6--------------------------------------------------------------------|
A|-----------6---------------------------------------------------------------|
E|---------------------------------------------------------------------------|


G|-5-------------------------------------------------------------------------|
D|------6--------------------------------------------------------------------|
A|-----------6-----6-6-6-----------------------------------------------------|
E|---------------------------------------------------------------------------|

ğŸŽ¸ Refrain:

G|---------------------------------------------------------------------------|
D|---------------------------------------------------------------------------|
A|-3-------------------------------------------------------------------------|
E|------4----1----1-1-1-1----------------------------------------------------|

G|---------------------------------------------------------------------------|
D|---------------------------------------------------------------------------|
A|-3--------------6-6-6-6----------------------------------------------------|
E|------4----7---------------------------------------------------------------|

ğŸŽ¸ Chorus:

G|---------------------------------------------------------------------------|
D|---------------------------------------------------------------------------|
A|-6-6-6---------3--3--3--3--------------------------------------------------|
E|-------1-1-1---------------------------------------------------------------|

G|---------------------------------------------------------------------------|
D|---------------------------------------------------------------------------|
A|-6-6-6-6-------------------------------------------------------------------|
E|---------3-3-3-3-4--4--4--4------------------------------------------------|

G|---------------------------------------------------------------------------|
D|---------------------------------------------------------------------------|
A|-6-6-6-6---------3--3--1-1-1-1---------------------------------------------|
E|---------6-6-6-6-----------------------------------------------------------|

G|---------------------------------------------------------------------------|
D|---------------------------------------------------------------------------|
A|-6-6-6-6-------------------------------------------------------------------|
E|---------3-3-3-3-4-4-4--4-4-4-4--------------------------------------------|

G|---------------------------------------------------------------------------|
D|---------------------------------------------------------------------------|
A|-6-6-6-6-------------------------------------------------------------------|
E|---------3-3-3-3-4-4-4--4-4-4-4--------------------------------------------|

ğŸŽ¸ Instrumental:

G|---------------------------------------------------------------------------|
D|---------------------------------------------------------------------------|
A|-3-3-3-3-------------------------------------------------------------------|
E|---------4-4-4-4-1-1-1-1-1-1-1-1-------------------------------------------|

G|---------------------------------------------------------------------------|
D|---------------------------------------------------------------------------|
A|-3-3-3-3---------7-7-7-7-6-6-6-6-------------------------------------------|
E|---------4-4-4-4-----------------------------------------------------------|

ğŸŽ¸ Refrain:

Sorry
I don't want your touch

G|---------------------------------------------------------------------------|
D|---------------------------------------------------------------------------|
A|-3-3-3-3-------------------------------------------------------------------|
E|---------4-4-4-4-1-1-1-1-1-1-1-1-------------------------------------------|

G|---------------------------------------------------------------------------|
D|---------------------------------------------------------------------------|
A|-3-3-3-3---------7-7-7-7-6-6-6-6-------------------------------------------|
E|---------4-4-4-4-----------------------------------------------------------|

G|---------------------------------------------------------------------------|
D|---------------------------------------------------------------------------|
A|-3-3-3-3-------------------------------------------------------------------|
E|---------4-4-4-4-1-1-1-1-1-1-1-1-1-1-1-1-1-1-1-1---------------------------|

ğŸŽ¸ Bridge:

G|---------------------------------------------------------------------------|
D|---------------------------------------------------------------------------|
A|-4-4-4-4-4-4-4-4-3-3-3-3-1-1-1-1-------------------------------------------|
E|---------------------------------1-1-1-1-4-4-4-4---------------------------|

ğŸŽ¸ Chorus:

G|---------------------------------------------------------------------------|
D|---------------------------------------------------------------------------|
A|-6-6-6-6---------3--3--3--3------------------------------------------------|
E|---------1-1-1-1-----------------------------------------------------------|

G|---------------------------------------------------------------------------|
D|---------------------------------------------------------------------------|
A|-6-6-6-6-------------------------------------------------------------------|
E|---------3-3-3-3-4-4-4-4-4-4-4-4-------------------------------------------|

G|---------------------------------------------------------------------------|
D|---------------------------------------------------------------------------|
A|-6-6-6-6---------3-3-3-3-1-1-1-1-------------------------------------------|
E|---------1-1-1-1-----------------------------------------------------------|

G|---------------------------------------------------------------------------|
D|---------------------------------------------------------------------------|
A|-6-6-6-6-------------------------------------------------------------------|
E|---------3-3-3-3-4-4-4-4-4-4-4-4-------------------------------------------|

G|---------------------------------------------------------------------------|
D|---------------------------------------------------------------------------|
A|-6-6-6-6-------------------------------------------------------------------|
E|---------3-3-3-3-4-4-4-4-4-4-4-4-------------------------------------------|

ğŸŽ¸ Outro:

G|---------------------------------------------------------------------------|
D|---------------------------------------------------------------------------|
A|-6-------------------------------------------------------------------------|
E|------3----4---------------------------------------------------------------|

G|---------------------------------------------------------------------------|
D|---------------------------------------------------------------------------|
A|-6-------------------------------------------------------------------------|
E|------4----1~--------------------------------------------------------------|


************************************

| ~  Vibrato

************************************

[ Privacy | About us ]

Welcome to the guitar community

Why join and log in?
- Get songbook with favourite songs
- Get custom made front page
- Submit chords and tabs
- Submit guitar-cover videos
- Get a lot of thumbs up for your work

Songbook

Last visited songs

Site
Home
Search
Community
Submit chords
Submit video

Video

No video for this page. Check out how you can submit guitar-cover videos here

Search tabs and chords

Browse by artist

A B C D E F G H I J K L M N O P Q R S T U V W X Y Z #


Menu

Search

Video

Bookmark

Login