Log in

One click and you are in

Login with Facebook Login with Google

Why sign up and log in

Guitar Tabs Explorer
Mitski chords for A burning hill ukulele

Guitar chords

Tuning: G C E A (G C E A)


Intro:
A|--0-0-0-0-|
E|-1-1-1-1--|
C|----------|
G|----------|

x 4
Verse 1:

Today I will wear my white button-down
A|--0-0-0-0--0-0-0-0--0-0-0-0--0-0-0-0-|
E|-1-1-1-1--0-0-0-0--------------------|
C|-------------------2-2-2-2--1-1-1-1--|
G|-------------------------------------|

I'm tired of wanting more
A|--0-0-0-0--0-0-0-0--0-0-0-0--0-0-0-0-|
E|----------1-1-1-1-----------1-1-1-1--|
C|-------------------------------------|
G|-3-3-3-3-----------3-3-3-3-----------|

I think I'm finally worn
A|--0-0-0-0--0-0-0-0--0-0-0-0--0-0-0-0-|
E|----------1-1-1-1-----------1-1-1-1--|
C|-------------------------------------|
G|-3-3-3-3-----------3-3-3-3-----------|

For you have a way of promising things
A|--0-0-0-0--0-0-0-0--0-0-0-0--0-0-0-0-|
E|-1-1-1-1--0-0-0-0--------------------|
C|-------------------2-2-2-2--1-1-1-1--|
G|-------------------------------------|

And I've been a forest fire
A|--0-0-0-0--0-0-0-0-|
E|----------1-1-1-1--|
C|-------------------|
G|-3-3-3-3-----------|

I am a forest fire
A|--0-0-0-0--0-0-0-0-|
E|----------1-1-1-1--|
C|-------------------|
G|-3-3-3-3-----------|

And I am the fire and I am the forest
A|--0-0-0-0--0-0-0-0-|
E|----------1-1-1-1--|
C|-------------------|
G|-3-3-3-3-----------|

And I am a witness watching it
A|-0-0-0-0--0-0-0-0-|
E|------------------|
C|-2-2-2-2--1-1-1-1-|
G|----------=-------|

I stand in a valley watching it
A|--0-0-0-0--0-0-0-0-|
E|----------1-1-1-1--|
C|-------------------|
G|-3-3-3-3-----------|

And you are not there at all
A|--0-0-0-0--0-0-0-0--0-0-0-0--0-0-0-0-|
E|----------1-1-1-1-----------1-1-1-1--|
C|-------------------------------------|
G|-3-3-3-3-----------3-3-3-3-----------|


Verse 2:

So today I will wear my white button-down
A|--0-0-0-0--0-0-0-0--0-0-0-0--0-0-0-0-|
E|-1-1-1-1--0-0-0-0--------------------|
C|-------------------2-2-2-2--1-1-1-1--|
G|-------------------------------------|

I can at least be neat
A|--0-0-0-0--0-0-0-0--0-0-0-0--0-0-0-0-|
E|----------1-1-1-1-----------1-1-1-1--|
C|-------------------------------------|
G|-3-3-3-3-----------3-3-3-3-----------|

Walk out and be seen as clean
A|--0-0-0-0--0-0-0-0--0-0-0-0--0-0-0-0-|
E|----------1-1-1-1-----------1-1-1-1--|
C|-------------------------------------|
G|-3-3-3-3-----------3-3-3-3-----------|


And I'll go to work and I'll go to sleep
A|--0-0-0-0--0-0-0-0--0-0-0-0--0-0-0-0-|
E|----------1-1-1-1-----------1-1-1-1--|
C|-------------------------------------|
G|-3-3-3-3-----------3-3-3-3-----------|

And I'll love the littler things
A|-0-0-0-0--0-0-0-0-|
E|------------------|
C|-2-2-2-2--1-1-1-1-|
G|----------=-------|

I'll love some littler things
A|--0-0-0-0--0-0-0-0--0-0-0-0--0-0-0-0-|
E|----------1-1-1-1-----------1-1-1-1--|
C|-------------------------------------|
G|-3-3-3-3-----------3-3-3-3-----------|
ⓘ Guitar chords for 'A Burning Hill Ukulele' by Mitski, a female folk artist from USA. Mitski was born in 1990.

Other versions of A Burning Hill Ukulele

A burning hill ukulele (Ver. 2)Chords

Almost there ...

Sign in to get your own page with links to favourite songs and more. You are just one click away...

Login with Facebook Login with Google