Log in

One click and you are in

Login with Facebook Login with Google

Why sign up and log in

Guitar Tabs Explorer
Mitski chords for A burning hill ukulele (Ver. 2)

Guitar chords

Tuning: G C E A (G C E A)


Intro:

A|---------------------------------------------------------------------------|
E|-2-2-2-2--(x4)-------------------------------------------------------------|
C|2-2-2-2--------------------------------------------------------------------|
G|---------------------------------------------------------------------------|

Verse 1:
  Today I will wear my white button-down
A|------------------2-2-2-2--1-1-1-1-----------------------------------------|
E|-2-2-2-2--2-2-2-2--2-2-2-2--2-2-2-2----------------------------------------|
C|2-2-2-2--1-1-1-1-----------------------------------------------------------|
G|---------------------------------------------------------------------------|
  I'm tired of wanting more... I think I'm finally worn
A|---------------------------------------------------------------------------|
E|-2-2-2-2--2-2-2-2--(x2)----------------------------------------------------|
C|---------2-2-2-2-----------------------------------------------------------|
G|0-0-0-0--------------------------------------------------------------------|

  For you have a way of promising things
A|------------------2-2-2-2--1-1-1-1-----------------------------------------|
E|-2-2-2-2--2-2-2-2--2-2-2-2--2-2-2-2----------------------------------------|
C|2-2-2-2--1-1-1-1-----------------------------------------------------------|
G|---------------------------------------------------------------------------|
  and I've been a forest fire... I am a forest fire
A|---------------------------------------------------------------------------|
E|-2-2-2-2--2-2-2-2--(x2)----------------------------------------------------|
C|---------2-2-2-2-----------------------------------------------------------|
G|0-0-0-0--------------------------------------------------------------------|

  and I am the fire and I am the forest
A|---------------------------------------------------------------------------|
E|-2-2-2-2--2-2-2-2----------------------------------------------------------|
C|---------2-2-2-2-----------------------------------------------------------|
G|0-0-0-0--------------------------------------------------------------------|

A|2-2-2-2--1-1-1-1-----------------------------------------------------------|
E|-2-2-2-2--2-2-2-2----------------------------------------------------------|
C|---------------------------------------------------------------------------|
G|---------------------------------------------------------------------------|

  I stand in a valley watching it... and you're not there at all
A|---------------------------------------------------------------------------|
E|-2-2-2-2--2-2-2-2--(x3)----------------------------------------------------|
C|---------2-2-2-2-----------------------------------------------------------|
G|0-0-0-0--------------------------------------------------------------------|

Break:
A|---------------------------------------------------------------------------|
E|-2-2-2-2--(x3)-------------------------------------------------------------|
C|2-2-2-2--------------------------------------------------------------------|
G|---------------------------------------------------------------------------|


 So today I will wear my white button-down
A|------------------2-2-2-2--1-1-1-1-----------------------------------------|
E|-2-2-2-2--2-2-2-2--2-2-2-2--2-2-2-2----------------------------------------|
C|2-2-2-2--1-1-1-1-----------------------------------------------------------|
G|---------------------------------------------------------------------------|
 I can at least be neat... walk out and be seen as clean
A|---------------------------------------------------------------------------|
E|-2-2-2-2--2-2-2-2--(x2)----------------------------------------------------|
C|---------2-2-2-2-----------------------------------------------------------|
G|0-0-0-0--------------------------------------------------------------------|


 and I'll go to work and I'll go to sleep
A|---------------------------------------------------------------------------|
E|-2-2-2-2--2-2-2-2----------------------------------------------------------|
C|---------2-2-2-2-----------------------------------------------------------|
G|0-0-0-0--------------------------------------------------------------------|
 and I'll love the littler things
A|2-2-2-2--1-1-1-1-----------------------------------------------------------|
E|-2-2-2-2--2-2-2-2----------------------------------------------------------|
C|---------------------------------------------------------------------------|
G|---------------------------------------------------------------------------|
 I'll love some littler things
A|---------------------------------------------------------------------------|
E|-2-2-2-2--2-2-2-2--(x2)----------------------------------------------------|
C|---------2-2-2-2-----------------------------------------------------------|
G|0-0-0-0--------------------------------------------------------------------|

A|---------------------------------------------------------------------------|
E|-2-2-2-2--(x2)-------------------------------------------------------------|
C|2-2-2-2--------------------------------------------------------------------|
G|---------------------------------------------------------------------------|
ⓘ This is the 2nd version of guitar chords for 'A Burning Hill Ukulele' by Mitski, a female folk artist from USA. Mitski was born in 1990.

Other versions of A Burning Hill Ukulele

A burning hill ukuleleChords

Almost there ...

Sign in to get your own page with links to favourite songs and more. You are just one click away...

Login with Facebook Login with Google