Log in

One click and you are in

Login with Facebook Login with Google

Why sign up and log in

Guitar Tabs Explorer
Joni Mitchell bass tabs for Shades of scarlett conquering

Shades Of Scarlett Conquering bass tab by Joni Mitchell

Joni Mitchell bass tabs for Shades of scarlett conquering

Bass tabs

Shades Of Scarlett Conquering by Joni Mitchell

Bass guitar


Intro

8 Bars Rest
Verse 1

|-----------------|-----------------|-----------------|-----------------|
|-----------------|-----------5-----|-2---------------|---------------2-|
|-0---------------|-2---------------|-----------------|-0---------------|
|-----------------|-----------------|-----------------|-----------------|
 W         H    E Q.   W         H.     E E

|-2---------------|-----------------|-----------------|-----------------|
|-----------------|-----------5-----|-2---------------|---------------2-|
|---------0-------|-2-------5-------|-----------------|-0---------------|
|-----------------|-----------------|-----------------|-----------------|
 H    H     H    E Q.   W         H.     E E

|-2---------------|-----------------|-----------------|-----------5-----|
|---------------2-|-----------------|---------------5-|-----------------|
|-----------------|-2-----------2-4-|-5---------------|-3---------------|
|-----------------|-----------------|-------------3---|-----------------|
 H.     E E  H.     E E  H.     E E  H    E Q.

|-----------------|-----------------|-----------------|-----------------|
|-3---------------|-5---------------|-----------------|-2---------------|
|-----------------|-----------------|-----------------|-----------------|
|-----------------|-----------3-----|-5---------------|-----------------|
 W         H    E Q.   W         W

|-9---------------|
|-----------------|
|---------7-------|
|-----------------|

Verse 2

|-----------------|---------4-------|-----------------|---------2-------|
|-------2---------|-----------5-----|-2---------------|-------2---------|
|-0-------0-------|-2---------------|-------2---------|-0---------------|
|-----------------|-----------------|---------0-------|-----------------|
 Q.  E H     H    E Q.   Q  E E H     Q.  E H

|-----------------|-----------------|-----------------|-----------------|
|---------------2-|-----------5-----|-2---------------|---------------2-|
|-0-------0-------|-2-------5-------|-----------------|-0---------------|
|-----------------|-----------------|---------0-------|-----------------|
 H    Q.  E  H    E Q.   H    H     H.     E E

|-2---------------|-----------------|-----------------|---------------5-|
|-----------------|-----------------|-----------------|-----------5-----|
|---------------4-|-2---------2-3-4-|-5---------------|-3---------------|
|-----------0-5---|-----------------|-------5-3-------|-----------------|
 H    E E E E  H    E E E E  Q.  E H     H    E Q  E

|-----------------|-----------------|-----------------|---------9-------|
|-3-----------3-4-|-5---------------|-----------------|-----------------|
|-----------------|-----------------|-----------------|-7---------------|
|-----------------|-----------3-----|-5---------------|-----------------|
 H.     E E  H    E Q.   W         H    H

|-----------------|
|-----------------|
|-7-----------7\--|
|-----------------|
 H.     Q


Verse 3

|-----------------|-----------------|-----------------|-------------2---|
|-----------------|-----------5-----|-2---------------|-----------2-----|
|-0-------0-----3-|-2-------5-------|---------------2-|-0-------------3-|
|-----------------|-----------------|---------0-------|-----------------|
 H    Q.  E  H    E Q.   H    Q.  E  H    E E E E

|-----------------|-----------------|-----------------|-------2---------|
|-----------------|-----------5-----|-2---------------|-----------------|
|-0-------0-----3-|-2-------5-------|-----------------|-0---------------|
|-----------------|-----------------|---------0-------|-----------------|
 H    Q.  E  H    E Q.   H    H     Q.  E H

|(2)--------------|
|-----------------|
|-----------------|
|-----------------|
 W

Interlude

|----------------|-------7---------|-----------------|
|---- 6 Bars ----|-----------------|-----------------|
|---- Rest ----|-5---------------|-5-----------5-4-|
|----------------|-----------------|-----------------|
          Q.  E H     H.     E E


Verse 4

|-----------------|-----------------|-----------------|-----------------|
|-----------------|-----------------|-----------------|-----------------|
|-2-----------3-4-|-5---------------|-----------------|-----------------|
|-----------------|---------3-------|-5-------3-------|-1---------------|
 H.     E E  H    H     H    H     W

|-----------------|-----------------|/9---------------|-----------------|
|-5---------------|-----------------|-----------------|-----------------|
|-----------------|-----------------|-----------------|-7-----------7\--|
|---------------3-|-5---------------|-----------------|-----------------|
 H.     E E  W         W         H.     Q

|-----------------|-----------------|-----------------|-----------2-----|
|-----------------|-----------5-----|-2---------------|-------------2---|
|-0-------------3-|-2-------5-------|-----------------|-0-------------3-|
|-----------------|-----------------|---------0-------|-----------------|
 H.     E E  H    E Q.   H    H     H    E E E E

|-----------------|-----------------|-----------------|---------2-------|
|-----------------|-----------5-----|-2---------------|-----------------|
|-0-------0-----3-|-2-------5-------|---------------2-|-0---------------|
|-----------------|-----------------|---------0-------|-----------------|
 H    Q.  E  H    E Q.   H    Q.  E  H    H

|-----------------|-----------------|-----------------|-----------------|
|-----------------|-----------------|-----------------|-----------------|
|-0-------------4-|-2---------2-3-4-|-5---------------|-----------------|
|-----------0-5---|-----------------|---------3-------|-5-----5-3-------|
 H    E E E E  H    E E E E  H    H     Q.  E H

|-----------------|-----------------|-----------------|-----------------|
|-----------------|-5---------------|-----------------|-----------------|
|-----------------|-----------------|-----------------|/7---------------|
|-1---------------|---------------3-|-5---------------|-----------------|
 W         H.     E E  W         W

|-9---------------|
|-----------------|
|---------7-------|
|-----------------|
 H    H


Verse 5

|-----------------|-----------------|-----------------|-----------------|
|-----------------|-----------5-----|-2---------------|---------------2-|
|-0-------------3-|-2-------5-------|-----------------|-0---------------|
|-----------------|-----------------|---------0-------|-----------------|
 H.     E E  H    E Q.   H    H     H.     E E

|-2---------------|-----------------|-----------------|-2---------------|
|-----------------|-----------5-----|-2---------------|-----------------|
|---------------3-|-2-------5-------|-----------------|-------0---------|
|-----------------|-----------------|-----------------|-----------------|
 H.     E E  H    E Q.   W         Q.  E H

|-2---------------|
|-----------------|
|-------0---------|
|-----------------|
 Q.  E H


Outro

|----------------|-------7---------|-------7---------|
|---- 6 Bars ----|-----------------|-----------------|
|---- Rest ----|-5---------------|-5---------------|
|----------------|-----------------|-----------------|
          Q.  E H     Q.  E H

|----------------|-------7---------|-----------------|
|---- 6 Bars ----|-----------------|------<5>--------|
|---- Rest ----|-5---------------|-5---------------|
|----------------|-----------------|-----------------|
          Q.  E H     Q.  E H

||------------------|------<9>---------||
||o------<5>--------|-----------------o||
||o-5---------------|-5---------------o||
||------------------|------------------||
  Q.  E H     Q.  E H


Key to rhythm notations:

W - Whole Note/Semi-Brieve
H - Half Note/Minim
Q - Quarter Note/Crotchet	Q. - Dotted Quarter Note
E - Eight Note/Quaver		E. - Dotted Eight Note
S - Sixteenth Note/Semi-Quaver	S. - Dotted Sixteenth Note

Almost there ...

Sign in to get your own page with links to favourite songs and more. You are just one click away...

Login with Facebook Login with Google