Log in

One click and you are in

Login with Facebook Login with Google

Why sign up and log in

Guitar Tabs Explorer
Joni Mitchell tabs for For the roses

Guitar tabs

Tuning: GGDGBD, capo III. Tune 6th string to very low G.
Transcriber: Phil Champ


[Intro]

A chord diagramD MajorD||----------|-----5-----------------------|-----------0-------------|
A chord diagramBB||----------|-----3----------------3------|--2--2--2-------------2--|
A chord diagramG+G||----------|-----5----0----4--0h4--------|--0--0--0----------0--0--|
A chord diagramD MajorD||--------0-|--------0------5---------5---|----------------2--2--2--|
A chord diagramG+G||--0-3-4---|---------------0-----------0-|--0--0--0----------------|
A chord diagramG+G||----------|--0---------0----------------|-------------------------|

|---------------0-----------|----------------------------||
|--1--------1-1-1-----1-----|--0------0h-1--0------------||
|--0-----0--0-0-------0-----|--0----0-0--0--0------------||
|-----1------------1-----1--|-----0---0h-2--0----------0-||
|--0------------0-----0-----|--0-----------------0-3-4---||
|---------------------------|----------------------------||



[Verse]

||-----5----------------------|---------------0------0-----|
||-----3---------3-------3----|--2------2-----2------2-----|
||----------0----4-----4------|--0----0------------0-------|
||--------0---------5------0--|-----2------2-----2------2--|
||---------------0------------|--2------------2------------|
||--0---------0---------------|----------------------------|


|---------------0------0-----|----------------------------|
|--1------1-----1------1-----|--0------0h-1--0------------|
|--0----0------------0-------|--0----0-0--0--0------------|
|-----1------1-----1------1--|-----0---0h-2--0----------0-|
|--1------------1------------|--0-----------------0-3-4---|
|----------------------------|----------------------------|


|-----5----------------------|---------------0------0-----|
|-----3---------3-------3----|--2------2-----2------2-----|
|----------0----4-----4------|--0----0------------0-------|
|--------0---------5------0--|-----2------2-----2------2--|
|---------------0------------|--2------------2------------|
|--0---------0---------------|----------------------------|


|---------------0------0-----|----------------------------||
|--1------1-----1------1-----|--0------0h-1--0------------||
|--0----0------------0-------|--0----0-0--0--0------------||
|-----1------1-----1------1--|-----0---0h-2--0----------0-||
|--1------------1------------|--0-----------------0-2-3---||
|----------------------------|----------------------------||



[Chorus]

||-----3---------3------------|--5------------5------0-----|
||-----1---------1-------1----|--3------3-----3------0-----|
||----------3----------3------|-------5------------5-------|
||--------0---------0------0--|-----0------0-----0------0--|
||---------------0------------|--0------------0------------|
||--0---------0---------------|----------------------------|


|---------------0------0-----|--0-------------------------|
|--1------1-----1------0-----|--1------1-----0------0-----|
|--0----0------------0-------|-------2-------0----0-------|
|-----2------2-----2------0--|-----3------3-----3------3--|
|--2------------2------------|--0------------0------------|
|----------------------------|----------------------------|


|---------------------------|----------------------------|
|--1------1-----0-----------|--0h1------0h1--0-----0-----|
|-------2-------------0-----|--0-2---2--0-2--0-----0-----|
|-----3------3-----3-----3--|--3---3----3-------3-----3--|
|--0------------0-----0-----|----------------0-----0-----|
|---------------------------|----------------------------|


                                [Outro]

|-------------------0----------||--------------------------------||
|--0h1--------1-----1----------||----------0-------------0-------||
|--0-2----0h2------------------||*-------0------0------0------0-*||
|--3---3---------3-----------0-||*-----0------0------0------0---*||
|-------------------0--0-3-4---||---0-------------0--------------||
|------------------------------||--------------------------------||

---

Almost there ...

Sign in to get your own page with links to favourite songs and more. You are just one click away...

Login with Facebook Login with Google