Log in

One click and you are in

Login with Facebook Login with Google

Why sign up and log in

Guitar Tabs Explorer
The Mission tabs for Severina

Guitar tabs with lyrics

*****************************
                        *                           *
                        *   T h e   M i s s i o n   *
                        *                           *
                        *     "S A chord diagramE MajorE V A chord diagramE MajorE R I N A"     *
                        *                           *
                        *****************************

 Finally I've manged to find some time to write down
 what I am still playing for a while. I hope I manged
 it to remember me right.
 So here is the first one, others to follow if I will
 find enough time.

 Comments, Correction, other Mission stuff are welcome
 Lauer Johannes, jolau@stud.uni-sb.de

 Used chords:
 ------------

 Explanation:

 *      do not pla the strings marked with a star
 >      downstroke
 <      upstroke

 the numbers in () like EM(1) and EM(5) to make
 a difference between different chords.


   EM(1)            A chord diagramF#sus4F#7sus4          A chord diagramDsus4Dsus4
   1.               1.               1.
 e|--|--|--|--|   e|--|--|--|--|   e|--|xx|--|--|
 A chord diagramBB|--|--|--|--|   A chord diagramBB|--|--|--|--|   A chord diagramBB|--|--|xx|--|
 A chord diagramG+G|--|--|--|--|   A chord diagramG+G|--|--|xx|--|   A chord diagramG+G|--|--|--|--|
 A chord diagramD MajorD|--|xx|--|--|   A chord diagramD MajorD|--|--|--|xx|   A chord diagramD MajorD|--|--|--|xx|
 A chord diagramA augmentedA|--|xx|--|--|  *A|--|--|--|--|  *A|--|--|--|--|
 A chord diagramE MajorE|--|--|--|--|  *E|--|--|--|--|  *E|--|--|--|--|

   Emsus4           Em(5)
   5.               5.
 e|xx|--|--|--|   e|--|--|xx|--|
 A chord diagramBB|xx|--|--|--|   A chord diagramBB|xx|--|--|--|
 A chord diagramG+G|--|--|--|--|  *G|--|--|--|--|
*D|--|--|--|--|  *D|--|--|--|--|
*A|--|--|--|--|  *A|--|--|--|--|
*E|--|--|--|--|  *E|--|--|--|--|

   A chord diagramGsus4Gsus4            A chord diagramDsus4Dsus4
   3.               3.
 e|xx|--|--|--|   e|--|--|xx|--|
 A chord diagramBB|xx|--|--|--|   A chord diagramBB|xx|--|--|--|
 A chord diagramG+G|--|--|--|--|   A chord diagramG+G|--|--|--|--|
 A chord diagramD MajorD|--|--|xx|--|   A chord diagramD MajorD|--|xx|--|--|
 A chord diagramA augmentedA|--|--|xx|--|   A chord diagramA augmentedA|--|--|xx|--|
*E|--|--|--|--|  *E|--|--|--|--|

   C(1)             C(2)
   1.               1.
 e|--|--|--|--|   e|--|--|xx|--|
 A chord diagramBB|xx|--|--|--|   A chord diagramBB|xx|--|--|--|
 A chord diagramG+G|--|--|--|--|   A chord diagramG+G|--|--|--|--|
 A chord diagramD MajorD|--|xx|--|--|   A chord diagramD MajorD|--|xx|--|--|
 A chord diagramA augmentedA|--|--|xx|--|   A chord diagramA augmentedA|--|--|xx|--|
*E|--|--|--|--|  *E|--|--|--|--|

   A chord diagramE minor 7Em7              Emsus4(7)
   5.               7.
 e|--|--|--|--|   e|--|--|--|--|
 A chord diagramBB|--|--|--|--|   A chord diagramBB|--|--|--|--|
 A chord diagramG+G|--|--|xx|--|   A chord diagramG+G|--|--|xx|--|
 A chord diagramD MajorD|xx|--|--|--|   A chord diagramD MajorD|xx|--|--|--|
 A chord diagramA augmentedA|--|--|xx|--|   A chord diagramA augmentedA|--|--|xx|--|
 A chord diagramE MajorE|--|--|--|--|   A chord diagramE MajorE|--|--|--|--|

   Emsus4(9)        Cmaj7/13 (9)     C9/13
   9.               9.               9.
 e|--|--|--|--|   e|--|--|--|xx|   e|--|xx|--|--|
 A chord diagramBB|--|--|--|--|   A chord diagramBB|--|--|--|xx|   A chord diagramBB|--|xx|--|--|
 A chord diagramG+G|--|--|xx|--|   A chord diagramG+G|xx|--|--|--|   A chord diagramG+G|xx|--|--|--|
 A chord diagramD MajorD|xx|--|--|--|   A chord diagramD MajorD|--|xx|--|--|   A chord diagramD MajorD|--|xx|--|--|
 A chord diagramA augmentedA|--|xx|--|--|   A chord diagramA augmentedA|--|--|--|--|   A chord diagramA augmentedA|--|--|--|--|
 A chord diagramE MajorE|--|--|--|--|  *E|--|--|--|--|  *E|--|--|--|--|

   A chord diagramC6C6               Cmaj7/13 (10)
   10.              10.
*e|--|--|--|--|   e|--|--|xx|--|
 A chord diagramBB|--|--|--|xx|   A chord diagramBB|--|--|xx|--|
 A chord diagramG+G|--|--|xx|--|   A chord diagramG+G|--|--|xx|--|
 A chord diagramD MajorD|xx|--|--|--|   A chord diagramD MajorD|xx|--|--|--|
 A chord diagramA augmentedA|--|--|--|--|   A chord diagramA augmentedA|--|--|--|--|
*E|--|--|--|--|  *E|--|--|--|--|

Riff A:
--------

   A chord diagramF#sus4F#7sus4                           A chord diagramDsus4Dsus4
e----------------------------------|-0h2p0----------------------------|
B----------------------------------|---------3------------------------|
G----------------------------------|-------------4--------------------|
D---------3-------4-------3--------|-----------------5----------------|
A-3-----------3---------------3----|-------------------------3--------|
E----------------------------------|----------------------------------|


Riff B:
-------

   A chord diagramE minorEm
e----------------------------------|-2---0----------------------------|
B----------------------------------|---------3------------------------|
G----------------------------------|-------------4--------------------|
D-----------------4----------------|-----------------5----------------|
A--2------5---2-----------5---2----|-------------------------2--------|
E----------------------------------|----------------------------------|


Riff c:
-------

   A chord diagramF#sus4F#7sus4
e--0-------------------------------|
B--0-------------------------------|
G--3-------------------------------|
D--4-------------------------------|
A----------------------------------|
E----------------------------------|

Rhythm A:
---------
                  Emsus4      A chord diagramE minorEm
e-----------------5---5-------7----|
B-----------------5---5-------5----|
G-----------------0---0-------0----|
D----------------------------------|
A----------------------------------|
E----------------------------------|
                  >   <       <
Rhythm B:
---------
                  A chord diagramGsus4Gsus4       A chord diagramDsus4Dsus4
e-----------------3---3-------5----|
B-----------------3---3-------3----|
G-----------------0---0-------0----|
D-----------------5---5-------4----|
A-----------------5---5-------5----|
E----------------------------------|
                  >   <       <


   |---------------------------------------------------------------------|
   | Riff A chord diagramA augmentedA                           | Riff A chord diagramBB                           |
   |---------------------------------------------------------------------|
   | Riff A chord diagramA augmentedA                           | Riff A chord diagramBB                           |
   |---------------------------------------------------------------------|
   | Riff A chord diagramC majorC                           | Rhythm A chord diagramA augmentedA                         |
   |---------------------------------------------------------------------|
*1*|                                  | Rhythm A chord diagramA augmentedA                         |
   | She's ..|
   |---------------------------------------------------------------------|
   |                                  | Rhythm A chord diagramBB                         |
   | she's ....                                 |
   |---------------------------------------------------------------------|
   |                                  | Rhythm A chord diagramBB                         |
   | and ....                                                 |
   |---------------------------------------------------------------------|
   |                                  | Rhythm A chord diagramA augmentedA                         |
   | with ...                                         |
   |---------------------------------------------------------------------|
   |                                  | Rhythm A chord diagramA augmentedA                         |
   | she's ...                                    |
   |---------------------------------------------------------------------|
   |                                  | Rhythm A chord diagramBB                         |
   | moonchild ..|
   |---------------------------------------------------------------------|
   |                                  | Rhythm A chord diagramBB                         |
   | and ....                                                 |
   |---------------------------------------------------------------------|
   |                                  |                                  |
   |  with a ..| Se     -      ve                 |
   |---------------------------------------------------------------------|
   |  C(1)                            | A chord diagramDsus4Dsus4                            |
   |  ri     -      na                | Se     -      ve                 |
   |---------------------------------------------------------------------|
   |  C(1)                            | Rhythm A chord diagramA augmentedA                         |
   |  ri     -      na                |                                  |
   |---------------------------------------------------------------------|

    Go on at *1* with the second verse:

    Verse 2:

    She ..
    she ..
    and ..
    amongst ..
    she ..
    she ..
    and ..
    amongst ...

   |---------------------------------------------------------------------|
   |                                  | Rhythm A chord diagramA augmentedA                         |
   |  Star  ..d..                   |                                  |
   |---------------------------------------------------------------------|
   |                                  | A chord diagramDsus4Dsus4                            |
   |  baby ..| Se     -      ve                 |
   |---------------------------------------------------------------------|
   |  C(1)                            | C(1)                             |
   |  ri     -      na                | Se     -      ve                 |
   |---------------------------------------------------------------------|
   |  C(1)                            | C(1)                             |
   |  ri     -      na                |                                  |
   |---------------------------------------------------------------------|
   |  A chord diagramE minor 7Em7                             | A chord diagramE minor 7Em7                              |
   |---------------------------------------------------------------------|
   |  Emsus4(7)                       | Emsus4(7)                        |
   |---------------------------------------------------------------------|
   |  Emsus4(9)                       | Emsus4(9)                        |
   |---------------------------------------------------------------------|
   |  Cmaj7/13(9)   C9/13             | A chord diagramC6C6            Cmaj7/13           |
   |---------------------------------------------------------------------|
   |  A chord diagramE minor 7Em7                             | A chord diagramE minor 7Em7                              |
   |---------------------------------------------------------------------|
   |  Emsus4(7)                       | Emsus4(7)                        |
   |---------------------------------------------------------------------|
   |  Emsus4(9)                       | Emsus4(9)                        |
   |---------------------------------------------------------------------|
   |  Cmaj7/13(9)   C9/13             | A chord diagramC6C6            Cmaj7/13           |
   |---------------------------------------------------------------------|
   | Riff A chord diagramBB                           | Riff A chord diagramA augmentedA                           |
   |---------------------------------------------------------------------|
   | Riff A chord diagramBB                           | Riff A chord diagramC majorC                           |
   |---------------------------------------------------------------------|
   | Riff A chord diagramA augmentedA                           |
   |----------------------------------|

    Go on at *1* with the 3. verse:

    Verse 3:

    She's ..
    she's ..
    and ..
    by ..
    she's ..
    sworn ..
    and ..
    by ...

   |---------------------------------------------------------------------|
   |                                  | Rhythm A chord diagramBB                         |
   |  She's ..|                                  |
   |---------------------------------------------------------------------|
   |                                  |                                  |
   |  and ..| Se     -      ve     -           |
   |---------------------------------------------------------------------|
   |  C(1)                            | A chord diagramDsus4Dsus4                            |
   |  ri     -      na                | Se     -      ve     -           |
   |---------------------------------------------------------------------|
   |  C(1)                            | A chord diagramDsus4Dsus4                            |
   |  ri     -      na                | Se     -      ve     -           |
   |---------------------------------------------------------------------|
*2*|  A chord diagramE minor 7Em7                             | A chord diagramE minor 7Em7                              |
   |  ri     -      na                |                                  |
   |---------------------------------------------------------------------|
   |  Emsus4(7)                       | Emsus4(7)                        |
   |                                  |                                  |
   |---------------------------------------------------------------------|
   |  Emsus4(9)                       | Emsus4(9)                        |
   |---------------------------------------------------------------------|
   |  Cmaj7/13(9)   C9/13             | A chord diagramC6C6            Cmaj7/13           |
   |---------------------------------------------------------------------|

    reapeat *2* to fade


   Comment:

   As for as I can remember the distorioned guitar plays like

   C(1), c(2), Dsus4, Dsus4(3)

   during the Refrain.

   Dsus4(3)
   3.
   e|xx|--|--|--|
   A chord diagramBB|xx|--|--|--|
   A chord diagramG+G|--|--|--|--|
   A chord diagramD MajorD|--|xx|--|--|
   A chord diagramA augmentedA|--|--|xx|--|
  *E|--|--|--|--|



THE MISSION - "Severina"

Comments, corrections etc. welcome.

Par Svensson, t89par@tdb.uu.se


Main Riff:

e -------------2-0----------------------0/2/0----------
A chord diagramBB -------0---------3-0------------0-----------3-0------
A chord diagramG+G ---0-----0-----------0------3-----3-------------0----
A chord diagramD MajorD -2---2-----2-----------2--4---4-----4-------------4--
A chord diagramA augmentedA -----------------------------------------------------
A chord diagramE MajorE -----------------------------------------------------

e ------------2-0----------2---
A chord diagramBB ------0---------3-0------2---
A chord diagramG+G --0-----0-----------0----3---
A chord diagramD MajorD 2---2-----2-----------2--4---
A chord diagramA augmentedA -----------------------------
A chord diagramE MajorE -----------------------------


A chord diagramD MajorD A chord diagramE minorEm
    She's ..

A chord diagramD MajorD A chord diagramE minorEm
    She's ..

A chord diagramG+G A chord diagramD MajorD
    She's ..

A chord diagramG+G A chord diagramD MajorD
    With a ..

A chord diagramD MajorD A chord diagramE minorEm
    She's ..,

A chord diagramD MajorD   A chord diagramE minorEm
    Moonchild ..

A chord diagramG+G         A chord diagramD MajorD
    She's ..

A chord diagramG+G A chord diagramD MajorD
    With ..


    A chord diagramE minorEm  A chord diagramC majorC
    Severina

    A chord diagramC majorC
    Severina


A chord diagramG+G A chord diagramE minorEm
    She ..

A chord diagramD MajorD A chord diagramE minorEm
    She ..

A chord diagramG+G         A chord diagramD MajorD
    She's ..

A chord diagramG+G A chord diagramD MajorD
    Amongst ..

A chord diagramD MajorD A chord diagramE minorEm
    She ..,

A chord diagramD MajorD A chord diagramE minorEm
    She ..

A chord diagramG+G         A chord diagramD MajorD
    She's ..

A chord diagramG+G A chord diagramD MajorD
    Amongst ..


    A chord diagramE minorEm  A chord diagramC majorC
    Severina

    A chord diagramC majorC
    Severina


A chord diagramG+G A chord diagramE minorEm
    Starchild,

A chord diagramD MajorD A chord diagramE minorEm
    Baby ..


    A chord diagramE minorEm  A chord diagramC majorC
    Severina

    A chord diagramC majorC
    Severina

A chord diagramE minorEm  A chord diagramE minorEm  ...  A chord diagramE minorEm  A chord diagramD MajorD  A chord diagramC majorC  A chord diagramD MajorD  A chord diagramE minorEm
A chord diagramE minorEm  A chord diagramE minorEm  ...  A chord diagramE minorEm  A chord diagramD MajorD  A chord diagramC majorC  A chord diagramD MajorD  A chord diagramE minorEm

    She's ..( ),
    She's ..( )
    She's ..
    By ..
    She's ..,
    Sworn ..
    She's ..,
    By ..

    Severina
    Severina

    She's a ..
    She's ..

    Severina
    Severina
    Severina

Other versions of Severina

SeverinaChords

Almost there ...

Sign in to get your own page with links to favourite songs and more. You are just one click away...

Login with Facebook Login with Google