Log in

One click and you are in

Login with Facebook Login with Google

Why sign up and log in

Guitar Tabs Explorer
The Mission bass tabs for Over the hills and far away

Over The Hills And Far Away bass tab by The Mission

The Mission bass tabs for Over the hills and far away

Bass tabs with lyrics

  • Difficulty: Beginner
Tuning: Standard (E A D G)

🎸 Intro:     0:00 → 0:18
G|---------------------------------------------------------------------------|
D|-----------2------------------2--------------------------------------------|
A|-4-2-0---4---0------4-2-0---4---0------------------------------------------|
E|---------------------------------------------------------------------------|
🎸 Verse: x6   0:18 → 0:58
G|---------------------------------------------------------------------------|
D|-----------------2-2-2-2-2-2-2-2-------------------------------------------|
A|-4-4-4-4-4-4-4-4-----------------4-2-2-2-2-2-2-2-2-4-----------------------|
E|-----------------------------------------------------2-2-2-2-2-2-2-2-------|

🎸 Chorus:     0:58 → 1:12 «Over the hills and far away there's a place...»
G|---------------------------------------------------------------------------|
D|-----------------------------------------------7--7-7-7-7-7-7-7------------|
A|-4-4-4-4-4-4-4-4-0-0-0-0-0-0-0-0-4-4-4-4-4-4-4-----------------------------|
E|---------------------------------------------------------------------------|

G|---------------------------------------------------------------------------|
D|---------------------------------------------------------------------------|
A|-4-4-4-4-4-4-4-4/7-7-7-7-7-7-7-7/9-9-9-9-9-9-9-9/11/12---------------------|
E|---------------------------------------------------------------------------|

🎸 Verse: x4   1:12 → 1:38 «Up and away, where angels dread to tread...»
G|---------------------------------------------------------------------------|
D|-----------------2-2-2-2-2-2-2-2-------------------------------------------|
A|-4-4-4-4-4-4-4-4-----------------4-2-2-2-2-2-2-2-2-4-----------------------|
E|-----------------------------------------------------2-2-2-2-2-2-2-2-------|

🎸 Chorus 2:    1:38 → 2:04 «Over the hills and far away there's a place...»
G|---------------------------------------------------------------------------|
D|-----------------------------------------------7--7-7-7-7-7-7-7------------|
A|-4-4-4-4-4-4-4-4-0-0-0-0-0-0-0-0-4-4-4-4-4-4-4-----------------------------|
E|---------------------------------------------------------------------------|

G|---------------------------------------------------------------------------|
D|---------------------------------------------------------------------------|
A|-4-4-4-4-4-4-4-4/7-7-7-7-7-7-7-7/9-9-9-9-9-9-9-9/12-12-12-12-12-12-12-12---|
E|---------------------------------------------------------------------------|

G|---------------------------------------------------------------------------|
D|-----------------------------------------------7--7-7-7-7-7-7-7------------|
A|-4-4-4-4-4-4-4-4-0-0-0-0-0-0-0-0-4-4-4-4-4-4-4-----------------------------|
E|---------------------------------------------------------------------------|

G|---------------------------------------------------------------------------|
D|---------------------------------------------------------------------------|
A|-4-4-4-4-4-4-4-4/7-7-7-7-7-7-7-7/9-9-9-9-9-9-9-9/12------------------------|
E|---------------------------------------------------------------------------|

🎸 Interlude:   2:04 → 2:16
G|---------------------------------------------------------------------------|
D|-----------2------------------2--------------------------------------------|
A|-4-2-0---4---0------4-2-0---4---0------------------------------------------|
E|---------------------------------------------------------------------------|

🎸 Solo: x4    2:16 → 2:42
G|---------------------------------------------------------------------------|
D|-----------------2-2-2-2-2-2-2-2-------------------------------------------|
A|-4-4-4-4-4-4-4-4-----------------4-2-2-2-2-2-2-2-2-4-----------------------|
E|-----------------------------------------------------2-2-2-2-2-2-2-2-------|

🎸 Verse: x4   2:42 → 3:09 «Higher and higher with treason, clear reason...»
G|---------------------------------------------------------------------------|
D|-----------------2-2-2-2-2-2-2-2-------------------------------------------|
A|-4-4-4-4-4-4-4-4-----------------4-2-2-2-2-2-2-2-2-4-----------------------|
E|-----------------------------------------------------2-2-2-2-2-2-2-2-------|

🎸 Chorus 3:    3:09 → 3:36 «Over the hills and far away there's a place...»
G|---------------------------------------------------------------------------|
D|-----------------------------------------------7--7-7-7-7-7-7-7------------|
A|-4-4-4-4-4-4-4-4-0-0-0-0-0-0-0-0-4-4-4-4-4-4-4-----------------------------|
E|---------------------------------------------------------------------------|

G|---------------------------------------------------------------------------|
D|---------------------------------------------------------------------------|
A|-4-4-4-4-4-4-4-4/7-7-7-7-7-7-7-7/9-9-9-9-9-9-9-9/12-12-12-12-12-12-12-12---|
E|---------------------------------------------------------------------------|

G|---------------------------------------------------------------------------|
D|-----------------------------------------------7--7-7-7-7-7-7-7------------|
A|-4-4-4-4-4-4-4-4-0-0-0-0-0-0-0-0-4-4-4-4-4-4-4-----------------------------|
E|---------------------------------------------------------------------------|

G|---------------------------------------------------------------------------|
D|---------------------------------------------------------------------------|
A|-4-4-4-4-4-4-4-4/7-7-7-7-7-7-7-7/9-9-9-9-9-9-9-9/12-12-12-12-12-12-12-12---|
E|---------------------------------------------------------------------------|

🎸 Outro:     3:36 → 3:58 (End)
G|---------------------------------------------------------------------------|
D|-----------------------------------------------7--7-7-7-7-7-7-7------------|
A|-4-4-4-4-4-4-4-4-0-0-0-0-0-0-0-0-4-4-4-4-4-4-4-----------------------------|
E|---------------------------------------------------------------------------|

G|---------------------------------------------------------------------------|
D|---------------------------------------------------------------------------|
A|-4-4-4-4-4-4-4-4/7-7-7-7-7-7-7-7/9-9-9-9-9-9-9-9/12-11-9---12-11-9---4-----|
E|---------------------------------------------------------------------------|

************************************
| /  Slide up
| \  Slide down
************************************

Almost there ...

Sign in to get your own page with links to favourite songs and more. You are just one click away...

Login with Facebook Login with Google