Log in

One click and you are in

Login with Facebook Login with Google

Why sign up and log in

Guitar Tabs Explorer
The Mission bass tabs for Blood brother

Bass tabs

Tuning: Standard (E A D G)


Intro: (0:14)

G|---------------------------------------------------------------------|
D|---------------------------------------------------------------------|
A|-----------------------------------7-7-7-7-7-7-7-7-5-5-5---5---5-----|
E|---7-7-7-7-7-7-7-7-5-5-5-5-5-5-5-5-----------------------5---5---5---|
G|---------------------------------------------------------------------|
D|---------------------------------------------------------------------|
A|---------------------------------------------------5-5-5---5---5-----|
E|---7-7-7-7-7-7-7-7-5-5-5-5-5-5-5-5-0-0-0-0-0-0-0-0-------5---5---5---|


Verse 1:

G|---------------------------------------------------------------------|
D|---------------------------------------------------------------------|
A|-----------------------------------7-7-7-7-7-7-7-7-5-5-5---5---5-----| x4
E|---7-7-7-7-7-7-7-7-5-5-5-5-5-5-5-5-----------------------5---5---5---|


Chorus:

G|---------------------------------------------------------------------|
D|---------------------------------------------------------------------|
A|---------------------------------------------------------------------| x2
E|---3-3-3-3-3-3-3-3-3-3-3-3-3-3-3-3-7-7-7-7-7-7-7-7-5-5-5-5-5-5-5-5---|

G|-------------------------------------|
D|-------------------------------------|
A|-------------------------------------|
E|---0-0-0-0-0-0-0-0-0-0-0-0-0-0-0-0---|

G|---------------------------------------------------------------------|
D|---------------------------------------------------------------------|
A|---------------------------------------------------------------------| x2
E|---7-7-7-7-7-7-7-7-5-5-5-5-5-5-5-5-4-4-4-4-4-4-4-4-3-3-3-3-3-3-3-3---|

G|---------------------------------------------------------------------|
D|---------------------------------------------------------------------|
A|---------------------------------------------------------------------|
E|---5/7-7-7-7-7-7-7-5/7-7-7-7-7-7-5/7-7-7-7-7-7-7-7-5/7-7-7-7-7-7-7---|

Verse:

G|---------------------------------------------------------------------|
D|---------------------------------------------------------------------|
A|-----------------------------------7-7-7-7-7-7-7-7-5-5-5---5---5-----| x4
E|---7-7-7-7-7-7-7-7-5-5-5-5-5-5-5-5-----------------------5---5---5---|


Chorus:

G|---------------------------------------------------------------------|
D|---------------------------------------------------------------------|
A|---------------------------------------------------------------------| x2
E|---3-3-3-3-3-3-3-3-3-3-3-3-3-3-3-3-7-7-7-7-7-7-7-7-5-5-5-5-5-5-5-5---|

G|-------------------------------------|
D|-------------------------------------|
A|-------------------------------------|
E|---0-0-0-0-0-0-0-0-0-0-0-0-0-0-0-0---|

G|---------------------------------------------------------------------|
D|---------------------------------------------------------------------|
A|---------------------------------------------------------------------| x2
E|---7-7-7-7-7-7-7-7-5-5-5-5-5-5-5-5-4-4-4-4-4-4-4-4-3-3-3-3-3-3-3-3---|

G|---------------------------------------------------------------------|
D|---------------------------------------------------------------------|
A|---------------------------------------------------------------------|
E|---7-----------------------------------------------------------------|


Bridge:

G|---------------------------------------------------------------------|
D|---------------------------------------------------5-5---------------|
A|---2-2-5-5-4-4-3-3-2-2-5-5-4-4-3-3-2-2-5-5-4-4-3-3-----4-4-5-5-4-4---| x4
E|---------------------------------------------------------------------|

G|---------------------------------------------------------------------|
D|---------------------------------------------------------------------|
A|--7------------------------------------------------------------------|
E|---------------------------------------------------------------------|

G|---------------------------------------------------------------------|
D|---------------------------------------------------------------------|
A|-----------------------------------7-7-7-7-7-7-7-7-5-5-5---5---5-----|
E|---7-7-7-7-7-7-7-7-5-5-5-5-5-5-5-5-----------------------5---5---5---|

G|---------------------------------------------------------------------|
D|---------------------------------------------------------------------|
A|---------------------------------------------------5-5-5---5---5-----|
E|---7-7-7-7-7-7-7-7-5-5-5-5-5-5-5-5-0-0-0-0-0-0-0-0-------5---5---5---|


Verse 3:

G|---------------------------------------------------------------------|
D|---------------------------------------------------------------------|
A|---------------------------------------------------5-5-5---5---5-----| x4
E|---7-7-7-7-7-7-7-7-5-5-5-5-5-5-5-5-0-0-0-0-0-0-0-0-------5---5---5---|


Chorus:

G|---------------------------------------------------------------------|
D|---------------------------------------------------------------------|
A|---------------------------------------------------------------------| x2
E|---3-3-3-3-3-3-3-3-3-3-3-3-3-3-3-3-7-7-7-7-7-7-7-7-5-5-5-5-5-5-5-5---|

G|-------------------------------------|
D|-------------------------------------|
A|-------------------------------------|
E|---0-0-0-0-0-0-0-0-0-0-0-0-0-0-0-0---|

G|---------------------------------------------------------------------|
D|---------------------------------------------------------------------|
A|---------------------------------------------------------------------| x2
E|---7-7-7-7-7-7-7-7-5-5-5-5-5-5-5-5-4-4-4-4-4-4-4-4-3-3-3-3-3-3-3-3---|


Outro:

G|---------------------------------------------------------------------|
D|---------------------------------------------------------------------|
A|---------------------------------------------------------------------| Repeat to fade
E|---7-7-7-7-7-7-7-7-5-5-5-5-5-5-5-5-4-4-4-4-4-4-4-4-3-3-3-3-3-3-3-3---|


************************************

| /  Slide up
| \  Slide down

************************************

Almost there ...

Sign in to get your own page with links to favourite songs and more. You are just one click away...

Login with Facebook Login with Google