Log in

One click and you are in

Login with Facebook Login with Google

Why sign up and log in

Guitar Tabs Explorer
Misfits bass tabs for We are 138

Bass tabs

To: dwm3@po.cwru.edu


  your misfits tab for we are 138 is wrong. I've been playing the song for
  almost three months and it's played like this:Intro
  G
  D--2----------2-2-2-2-2-2-------2-2-2-2-2-2-----------------------------
  A------------------------------3-5------------------3-5---3-3-3-3-5-5-5-5
  E
  ------------------------------------------------------------------------------
  -----------------------------------
  G             (we are 138's)
  D2222222222------2222222222-----2222222222-----222222222
  A-----------------3-5-------------------3-5------------------3-5--------------
  --3-5-333333-555555
  E
  ------------------------------------------------------------------------------
  -----------------------------------
  G        (we are 138's)
  D2222222222-----2222222222------2222222222
  A------------------3-5------------------3-5-------------------3-5--333333-5555
  5
  E
  ------------------------------------------------------------------------------
  -----------------------------------
  G        (verses)
  D-222222222222222222222222222222222222               (x2)
  A-----------------------------------------------------------------333333-55555
  5
  E
  ------------------------------------------------------------------------------
  -----------------------------------
  G       (solo)
  D22222222222222222222222222222222222-----2222222222
  A-------------------------------------------------------------3-5-------------
  -----3-5-333333-555555
  E
  ------------------------------------------------------------------------------
  -----------------------------------
  G        (we are 138's)
  D 2222222222-----2222222222-----2222222222
  A-------------------3-5------------------3-5------------------3-5--333333-5555
  55
  E
  ------------------------------------------------------------------------------
  -----------------------------------
  G          (outro)
  D 2-2-2-2-----------------------2-2-2-2-2-2-2-2------------------------2
  A-------------3-3-3-3-5-5-5-5------------------------3-3-3-3-5-5-5-5
  E
  ------------------------------------------------------------------------------
  -----------------------------------
  try that it will work better
  jim rutzler aka JDR3

Almost there ...

Sign in to get your own page with links to favourite songs and more. You are just one click away...

Login with Facebook Login with Google