Log in

One click and you are in

Login with Facebook Login with Google

Why sign up and log in

Guitar Tabs Explorer
Misfits bass tabs for The black hole

Bass tabs

Misfits - The Black Hole
The Devil's Rain (2011)

Intro:

G|-----------------|
D|-----------------|
A|-----------------|
E|-4-4-4-4-4-4-4-4-|

Verse: x4

G|----------------|-----------------|----------------|----------------|
D|----------------|-----------------|----------------|----------------|
A|-4--4-4-4-4-4-4-|-4-4-4-4-4-4-4-4-|----------------|----------------|
E|----------------|-----------------|-2--2-2-2-2-2-2-|-4--4-4-4-4-4-4-|

Pre Chorus:

G|-----------------|-----------------|-----------------|-----------------|
D|-----------------|-----------------|-----------------|-----------------|
A|-----------------|-----------------|-----------------|-----------------|
E|-2-2-2-2-2-2-2-2-|-2-2-2-2-2-2-2-2-|-4-4-4-4-4-4-4-4-|-4-4-4-4-4-4-4-4-|

G|-----------------|-----------------|-----------------|---------|
D|-----------------|-----------------|-----------------|---------|
A|-----------------|-----------------|-----------------|---------|
E|-2-2-2-2-2-2-2-2-|-2-2-2-2-2-2-2-2-|-4-4-4-4-4-4-4-4-|-4\------|


Chorus:

G|---------------|---------------|-----------------|-----------------|
D|---------------|---------------|-----------------|-----------------|
A|-4--4-4-3--3-3-|---------------|-----------------|-----------------|
E|---------------|-6--6-6-4--4-4-|-2-2-2-2-2-2-2-2-|-4-4-4-4-4-4-4-4-|

End:

G|---------|---------|---------|-------|
D|---------|---------|---------|-------|
A|---------|---------|---------|-4-----|
E|-2-2-2-2-|-2-2-4-4-|-4-4-4-4-|-------|

Order:
Intro
Verse
Pre Chorus
Chorus x2
Intro
Verse
Pre Chorus
Chorus x3
First two bars of chorus & End


************************************

| \   Slide down

Almost there ...

Sign in to get your own page with links to favourite songs and more. You are just one click away...

Login with Facebook Login with Google