Log in

One click and you are in

Login with Facebook Login with Google

Why sign up and log in

Guitar Tabs Explorer
Misfits guitar chords for Some kinda hate

Guitar chords

Some Kinda Hate
by the Misfits
>From the Album Static Age
Transcribed by Dan

Tuned normal

Riff 1 (Verse)

e------------------------------------------|
b------------------------------------------|
g------------------------------------------|
d--10-10-10-10-10-10-10-9-7-7-7-7-7-7-7-9--|
a--10-10-10-10-10-10-10-9-7-7-7-7-7-7-7-9--|
e---8--8--8--8--8--8--8-7-5-5-5-5-5-5-5-7--|

Riff 2 (Chorus)

e---------------------------|
b---------------------------|
g--10-10-10-10-12-12-12-12--|
d--10-10-10-10-12-12-12-12--|
a---8--8--8--8-10-10-10-10--|
e---------------------------|

Riff 3
e------------------------------------------------|
b------------------------------------------------|
g--13-13-13-13-13-13-17-17-18-18-18-18-18-18-18--|
d--13-13-13-13-13-13-15-15-18-18-18-18-18-18-18--|
a--11-11-11-11-11-11-15-15-16-16-16-16-16-16-16--|
e------------------------------------------------|

e--------------------------------------------------|
b--------------------------------------------------|
g--13-13-13-13-13-13-17-17-18-18-18-18-17-18-17-18-|
d--13-13-13-13-13-13-15-15-18-18-18-18-17-18-17-18-|
a--11-11-11-11-11-11-15-15-16-16-16-16-15-16-15-16-|
e--------------------------------------------------|

Little Solo Part (something like this)

b--8-8-8-8-6-5-5-5--------------|
g------------------7-5-7-5-2-2--|

Order of Riffs

Riff 1 4x
Riff 2 4x
Riff 1 3x
Riff 2 4x
Riff 3 2x
Riff 1 3x (solo is going on at same time)
Riff 2 4x

This is a very short and sweet song but good fun.
Once you get the rhythm down there’s nothing to it.

Praise, comments, suggestions:
killerklownfromouterspace@hotmail.com

Other versions of Some Kinda Hate

Some kinda hateTabs

Almost there ...

Sign in to get your own page with links to favourite songs and more. You are just one click away...

Login with Facebook Login with Google