Log in

One click and you are in

Login with Facebook Login with Google

Why sign up and log in

Guitar Tabs Explorer
Misfits bass tabs for Shining

Bass tabs

Tuning: Half-step down



Intro
A |-----------------|-----------------|-----------------|-----------------|
E |030-------5-3-5-3|030-------5-3-5-3|030-------5-3-5-3|030-------/6-----| x2

Verse
A |-----------------|3-333333-2-222222|-----------------|3-333333-2-222222|
E |0-00-00-0000000--|-----------------|0-00-00-0000000--|-----------------|

A |-----------------|3-333333-2-222222|-----------------|3-333333333333333|2-222222222222222|22222222222222222|
E |0-00-00-0000000--|-----------------|0-00-00-0000000--|-----------------|-----------------|-----------------|

Intro
A |-----------------|-----------------|-----------------|-----------------|
E |030-------5-3-5-3|030-------5-3-5-3|030-------5-3-5-3|030-------/6-----| x2

Verse
A |-----------------|3-333333-2-222222|-----------------|3-333333-2-222222|
E |0-00-00-0000000--|-----------------|0-00-00-0000000--|-----------------|

A |-----------------|3-333333-2-222222|-----------------|3-333333333333333|2-222222222222222|22222222222222222|
E |0-00-00-0000000--|-----------------|0-00-00-0000000--|-----------------|-----------------|-----------------|

Chorus
A |4-444444444444444|0-000000-2-222222|      A |3-333333-2-222222| (these are the transition notes at the end
E |-----------------|-----------------| x4   E |-----------------|  of the chorus back to the intro)


From here
Intro x2
Verse x1
Chorus x1
Intro x1
Chorus x1
Intro x2

End
E |666666666666-(Hold this note with drums)-|0---0----------|

Almost there ...

Sign in to get your own page with links to favourite songs and more. You are just one click away...

Login with Facebook Login with Google