Log in

One click and you are in

Login with Facebook Login with Google

Why sign up and log in

Guitar Tabs Explorer
Misfits guitar tabs for Saturday night

Guitar tabs

D#|-------------------------------------------------------------------------------------|
A#|-------------------------------------------------------------------------------------|
F#|-----------7-------------------------------------------------------------------------|
C#|--4~/7-7-7-7-7-7-(x2)--------9-----------------5-----------------7-------------------|
G#|--2~/5-5-5-5-5-5-------9-9-9-9-9-9-(x2)--5-5-5-5-5-5-(x2)--7-7-7-7-7-7--7-7-7-7-7-7--|
D#|-----------------------7-7-7-7-7-7-------3-3-3-3-3-3-------5-5-5-5-5-5--5-5-5-5-5-5--|
                                                                           * * * * * *

D#|-------------------------------------------------------------------------------------|
A#|-------------------------------------------------------------------------------------|
F#|-------------------------------------------------------------------------------------|
C#|-------------------------------------------------------------------------------------|
G#|--5~-7/9-7-5h7/9-7/5~---5-7/9~-7\5~-7-5-4~-4-5-5-5-7-7-7-5~--------------------------|
D#|----------------------7--------------------------------------------------------------|
D#|-------------------------------------------------------------------------------------|
A#|-------------------------------------------------------------------------------------|
F#|-------------------------------------------------------------------------------------|
C#|--------9-----------------5-----------------7----------------------------------------|
G#|--9-9-9-9-9-9-(x2)--5-5-5-5-5-5-(x2)--7-7-7-7-7-7-(x2)-------------------------------|
D#|--7-7-7-7-7-7-------3-3-3-3-3-3-------5-5-5-5-5-5------------------------------------|
     * * *   * *       * * *   * *       * * *   * *

D#|-------------------------------------------------------------------------------------|
A#|-------------------------------------------------------------------------------------|
F#|--7-----7-----------7----------------------------------------------------------------|
C#|--7-7-7-7-7-7-7-7-7-7-7-7--9-----9-----------9---------------------------------------|
G#|--5-5-5-5-5-5-5-5-5-5-5-5--9-9-9-9-9-9-9-9-9-9-9-9-----------------------------------|
D#|---------------------------7-7-7-7-7-7-7-7-7-7-7-7-----------------------------------|
       * *   * * * * *   * *    * *   * * * * *   * *

D#|-------------------------------------------------------------------------------------|
A#|-------------------------------------------------------------------------------------|
F#|-------------------------------------------------------------------------------------|
C#|--5-----5-----------5------7-----7-----------7-7-7-7-7-7-7---------------------------|
G#|--5-5-5-5-5-5-5-5-5-5-5-5--7-7-7-7-7-7-7-7-7-7-7-7-7-7-7-7---------------------------|
D#|--3-3-3-3-3-3-3-3-3-3-3-3--5-5-5-5-5-5-5-5-5-5-5-5-5-5-5-5---------------------------|
       * *   * * * * *   * *    * *   * * * * *

D#|-------------------------------------------------------------------------------------|
A#|-------------------------------------------------------------------------------------|
F#|--------7----------------------------------------------------------------------------|
C#|--7-7-7-7-7-7-(x2)--------9-----------------5-----------------7----------------------|
G#|--5-5-5-5-5-5-------9-9-9-9-9-9-(x2)--5-5-5-5-5-5-(x2)--7-7-7-7-7-7-(x2)-------------|
D#|--------------------7-7-7-7-7-7-------3-3-3-3-3-3-------5-5-5-5-5-5------------------|
                                         * * *   * *       * * *   * *

D#|-------------------------------------------------------------------------------------|
A#|-------------------------------------------------------------------------------------|
F#|----------------------------------7--------------------------------------------------|
C#|--------5------------7------7-7-7-7-7-7-7-7-7-7-7-7-7--------------------------------| (x2)
G#|--5-5-5-5-5-5--7-7-7-7-7-7--5-5-5-5-5-5-5-5-5-5-5-5-5--------------------------------|
D#|--3-3-3-3-3-3--5-5-5-5-5-5-----------------------------------------------------------|
                                             * * * * * *

D#|-------------------------------------------------------------------------------------|
A#|-------------------------------------------------------------------------------------|
F#|-------------------------------------------------------------------------------------|
C#|--------5------------7------------4------------5-----------5------------7------------|
G#|--5-5-5-5-5-5--7-7-7-7-7-7--4-4-4-4-4-4--5-5-5-5-5-5-5-5-5-5-5-5--7-7-7-7-7-7--------|
D#|--3-3-3-3-3-3--5-5-5-5-5-5--2-2-2-2-2-2--3-3-3-3-3-3-3-3-3-3-3-3--5-5-5-5-5-5--------|

D#|-------------------------------------------------------------------------------------|
A#|-------------------------------------------------------------------------------------|
F#|--------7----------------------------------------------------------------------------|
C#|--7-7-7-7-7-7-(x2)--------9-----------------5-----------------7----------------------|
G#|--5-5-5-5-5-5-------9-9-9-9-9-9-(x2)--5-5-5-5-5-5-------7-7-7-7-7-7------------------|
D#|--------------------7-7-7-7-7-7-------3-3-3-3-3-3-------5-5-5-5-5-5------------------|


D#|-------------------------------------------------------------------------------------|
A#|-------------------------------------------------------------------------------------|
F#|--------7----------------------------------------------------------------------------|
C#|--7-7-7-7-7-7-(x4)--------9-----------------5-----------------7----------------------|
G#|--5-5-5-5-5-5-------9-9-9-9-9-9-(x2)--5-5-5-5-5-5-------7-7-7-7-7-7------------------|
D#|--------------------7-7-7-7-7-7-------3-3-3-3-3-3-------5-5-5-5-5-5------------------|


D#|-------------------------------------------------------------------------------------|
A#|-------------------------------------------------------------------------------------|
F#|--------7----------------------------------------------------------------------------|
C#|--7-7-7-7-7-7-(x2)-------------------------------------------------------------------|
G#|--5-5-5-5-5-5------------------------------------------------------------------------|
D#|-------------------------------------------------------------------------------------|


D#|-------------------------------------------------------------------------------------|
A#|-------------------------------------------------------------------------------------|
F#|-------------------------------------------------------------------------------------|
C#|-------------------------------------------------------------------------------------|
G#|--5~-7/9-7-5h7/9-7/5~---5-7/9~-7\5~-7-5-4~-4-5-5-5-7-7-7-7~--------------------------|
D#|----------------------7--------------------------------------------------------------|


D#|-------------------------------------------------------------------------------------|
A#|-------------------------------------------------------------------------------------|
F#|-------------------------------------------------------------------------------------|
C#|--------11----------------------7-----------------9----------------------------------|
G#|--11-11-11-11-11-11-(x2)--7-7-7-7-7-7-(x2)--9-9-9-9-9-9-(x2)-------------------------|
D#|--9--9--9--9--9--9--------5-5-5-5-5-5-------7-7-7-7-7-7------------------------------|
     *  *     *  *  *        * * *   * *       * * *   * *

D#|-------------------------------------------------------------------------------------|
A#|-------------------------------------------------------------------------------------|
F#|--------9----------------------------------------------------------------------------|
C#|--9-9-9-9-9-9-(x2)-----------11-------------------7-----------------9----------------|
G#|--7-7-7-7-7-7-------11-11-11-11-11-11-(x2)--7-7-7-7-7-7-(x2)--9-9-9-9-9-9-(x2)-------|
D#|--------------------9--9--9--9--9--9--------5-5-5-5-5-5-------7-7-7-7-7-7------------|
     * * *   * *       *  *  *     *  *

D#|-------------------------------------------------------------------------------------|
A#|-------------------------------------------------------------------------------------|
F#|----------------------------------9--------------------------------------------------|
C#|--------7------------9------9-9-9-9-9-9-9-9-9-9-9-9-9--------------------------------| (x2)
G#|--7-7-7-7-7-7--9-9-9-9-9-9--7-7-7-7-7-7-7-7-7-7-7-7-7--------------------------------|
D#|--5-5-5-5-5-5--7-7-7-7-7-7-----------------------------------------------------------|
                                             * * * * * *

D#|-------------------------------------------------------------------------------------|
A#|-------------------------------------------------------------------------------------|
F#|-------------------------------------------------------------------------------------|
C#|--------7------------9------------6------------7-----------7------------9------------|
G#|--7-7-7-7-7-7--9-9-9-9-9-9--6-6-6-6-6-6--7-7-7-7-7-7-7-7-7-7-7-7--9-9-9-9-9-9--------|
D#|--5-5-5-5-5-5--7-7-7-7-7-7--4-4-4-4-4-4--5-5-5-5-5-5-5-5-5-5-5-5--7-7-7-7-7-7--------|


D#|-------------------------------------------------------------------------------------|
A#|-------------------------------------------------------------------------------------|
F#|--------9----------------------------------------------------------------------------|
C#|--9-9-9-9-9-9-(x2)--------11----------------------7-----------------9----------------|
G#|--7-7-7-7-7-7-------11-11-11-11-11-11-(x2)--7-7-7-7-7-7-------9-9-9-9-9-9------------|
D#|--------------------9--9--9--9--9--9--------5-5-5-5-5-5-------7-7-7-7-7-7------------|


D#|-------------------------------------------------------------------------------------|
A#|-------------------------------------------------------------------------------------|
F#|--------9----------------------------------------------------------------------------|
C#|--9-9-9-9-9-9-(x4)--------11----------------------7-----------------9----------------|
G#|--7-7-7-7-7-7-------11-11-11-11-11-11-(x2)--7-7-7-7-7-7-------9-9-9-9-9-9------------|
D#|--------------------9--9--9--9--9--9--------5-5-5-5-5-5-------7-7-7-7-7-7------------|


D#|-------------------------------------------------------------------------------------|
A#|-------------------------------------------------------------------------------------|
F#|--------9-------------------6---------------------------------------------9----------|
C#|--9-9-9-9-9-9---------6-6-6-6-6-6---------------7------------9------9-9-9-9-9-9------|
G#|--7-7-7-7-7-7--7~-6~--4-4-4-4-4-4--4~-2~--7-7-7-7-7-7--9-9-9-9-9-9--7-7-7-7-7-7------|
D#|------------------------------------------5-5-5-5-5-5--7-7-7-7-7-7-------------------|


D#|-------------------------------------------------------------------------------------|
A#|-------------------------------------------------------------------------------------|
F#|---------------6---------------------------------------------------------------------|
C#|---------6-6-6-6-6-6-----------------9~----------------------------------------------|
G#|--7~-6~--4-4-4-4-4-4--4~-2~--7~--9~--7~----------------------------------------------|
D#------------------------------5~--7~--------------------------------------------------|




************************************

| *   Palm Mute
| h   Hammer-on
| /   Slide up
| \   Slide down

Other versions of Saturday Night

Saturday nightChords

Almost there ...

Sign in to get your own page with links to favourite songs and more. You are just one click away...

Login with Facebook Login with Google