Log in

One click and you are in

Login with Facebook Login with Google

Why sign up and log in

Guitar Tabs Explorer
Misfits bass tabs for Return of the fly

Bass tabs

Intro
G|--------------------|--------------------|--------------------|--------------------|
D|--------3-----------|--------------------|--------------------|--------------------|
A|--1--4---------1--4-|--1--4---------1--4-|--1--4---------1--4-|--1--4---------1--4-|
E|------------2-------|------------2-------|------------2-------|------------2-------|

Verse ("Return Of The Fly...")
G|--------------------|--------------------|--------------------|-------------------|
D|--------------------|--------------------|--------------------|-------------------|
A|-1--1-1-1-----------|-1--1-1-1-----------|-1--1-1-1-----------|-1--1-1-1----1-2-4-|
E|-----------2--2-2-2-|-----------2--2-2-2-|-----------2--2-2-2-|-----------2-------|

Chorus ("Helen Delambre...")
G|------------------|------------------|------------------|------------------|
D|------------------|------------------|------------------|------------------|
A|-7-7-7-7--5-5-5-5-|-7-7-7-7--5-5-5-5-|-7-7-7-7--5-5-5-5-|-7-7-7-7--5-4-3-2-|
E|------------------|------------------|------------------|------------------|
Verse ("Return Of The Fly, You Guinea Pig...")
G|--------------------|--------------------|--------------------|-------------------|
D|--------------------|--------------------|--------------------|-------------------|
A|-1--1-1-1-----------|-1--1-1-1-----------|-1--1-1-1-----------|-1--1-1-1----1-2-4-|
E|-----------2--2-2-2-|-----------2--2-2-2-|-----------2--2-2-2-|-----------2-------|


Chorus ("Helen Delambre...")
G|------------------|------------------|------------------|------------------|
D|------------------|------------------|------------------|------------------|
A|-7-7-7-7--5-5-5-5-|-7-7-7-7--5-5-5-5-|-7-7-7-7--5-5-5-5-|-7-7-7-7--5-5-5-5-|
E|------------------|------------------|------------------|------------------|

 ("Cecile! Cecile...")
G|------------------|------------------|------------------|------------------|
D|------------------|------------------|------------------|------------------|
A|-7-7-7-7--5-5-5-5-|-7-7-7-7--5-5-5-5-|-7-7-7-7--5-5-5-5-|-7-7-7-7--5-4-3-2-|
E|------------------|------------------|------------------|------------------|


Verse
G|--------------------|--------------------|--------------------|-------------------|
D|--------------------|--------------------|--------------------|-------------------|
A|-1--1-1-1-----------|-1--1-1-1-----------|-1--1-1-1-----------|-1--1-1-1----1-2-4-|
E|-----------2--2-2-2-|-----------2--2-2-2-|-----------2--2-2-2-|-----------2-------|

 ("Return Of The Fly, With Vincent Price...")
G|--------------------|--------------------|--------------------|-------------------|
D|--------------------|--------------------|--------------------|-------------------|
A|-1--1-1-1-----------|-1--1-1-1-----------|-1--1-1-1-----------|-1--1-1-1----1-2-4-|
E|-----------2--2-2-2-|-----------2--2-2-2-|-----------2--2-2-2-|-----------2-------|

G|--------------------|--------------------|--------------------|-------------------|
D|--------------------|--------------------|--------------------|-------------------|
A|-1--1-1-1-----------|-1--1-1-1-----------|-1--1-1-1-----------|-1--1-1-1----1-2-4-|
E|-----------2--2-2-2-|-----------2--2-2-2-|-----------2--2-2-2-|-----------2-------|

Outro
G|--------------------|--------------------|--------------------|--------------------|-------|
D|--------3-----------|--------------------|--------------------|--------------------|-------|
A|--1--4---------1--4-|--1--4---------1--4-|--1--4---------1--4-|--1--4---------1--4-|-1-----|

Almost there ...

Sign in to get your own page with links to favourite songs and more. You are just one click away...

Login with Facebook Login with Google