Log in

One click and you are in

Login with Facebook Login with Google

Why sign up and log in

Guitar Tabs Explorer
Misfits guitar tabs for Monster mash

Guitar tabs with lyrics

Tabbed by: FAT-MAT

Tuning: Standard

Simple song, quite catchy, here it goes...

Main riff and chorus: Listen to the song to get the strumming/palm muting.

E|----------------------------------------------------------------------------
B|-2--------------------------------------------------------------------------
G|-2-----4-----7-----9--------------------------------------------------------
D|-2-----4-----7-----9--------------------------------------------------------
A|-------4-----5-----7--------------------------------------------------------
E|-------2--------------------------------------------------------------------

This is the bit where it goes “Zombies were having fun, the party had just begun, the
guests included wolf-man, Dracula and his son.”

E|----------------------------------------------------------------------------
B|----------------------------------------------------------------------------
G|-7----5---------------------------------------------------------------------
D|-7----5---------------------------------------------------------------------
A|-5----7---------------------------------------------------------------------
E|----------------------------------------------------------------------------

This is played near the end and as the very ending of the song, once again, listen to
the song and you will see where it is played.

E|---------------------------------------------------------------------------|
B|-------2-----------------2--------------------------------------------------
G|-4-----2-----------------2--------------------------------------------------
D|-4-----2-----5-----4-----2--------------------------------------------------
A|-2-----------5-----4--------------------------------------------------------
E|-------------3-----2--------------------------------------------------------

That’s pretty much correct as far as I know, all you have to do is listen and you’ll
see where to mute and strum, at the very beginning at the end of the drum intro I do
a pick slide but you can do the same as the song by sliding your hand down the fret
board, also let the A chord diagramA majorA chord ring out at the end of the song. Hope that helps someone!

| /  slide up
|   slide down
| h  hammer-on
| p  pull-off
| ~  vibrato
| +  harmonic
| x  Mute note

Almost there ...

Sign in to get your own page with links to favourite songs and more. You are just one click away...

Login with Facebook Login with Google