Log in

One click and you are in

Login with Facebook Login with Google

Why sign up and log in

Guitar Tabs Explorer
Misfits guitar chords for Mars attacks

Guitar chords with lyrics

Intro: A chord diagramA5A5


Eb|---------------------------|
Bb|---------------------------|
Gb|---------------------------|
Db|---------------------------|
Ab|--7-7-7-7-7-7-7-7-7-7------|
Eb|--5-5-5-5-5-5-5-5-5-5------|
A chord diagramA5A5
Their eyes for many centuries
A chord diagramC5C5
Peered in from space
A chord diagramG5G5
Sincere the hope, their wise believed
A chord diagramA5A5
They could teach our race

A chord diagramA5A5
But yet on Mars, a darker side
A chord diagramC5C5
Like all things that God made
A chord diagramG5G5
Their tribe of war, would heed them not
A chord diagramD5D5
"Earth they must invade"


Eb|------------------------------------------------------------------------|
Bb|------------------------------------------------------------------------|
Gb|------------------------------------------------------------------------|
Db|--------5-------7-7-7-7-7--------5-------5-5-5-5-5--------5-------------|
Ab|--5-7-8---8-7-5-5-5-5-5-5--5-7-8---8-7-5-3-3-3-3-3-5-7-8---8-7-5--3-3-3-|
Eb|------------------------------------------------------------------1-1-1-|

Eb|--------------------------------------------|
Bb|--------------------------------------------|
Gb|--------------------------------------------|
Db|---------------7-7-7-7-7-7--5-5-5-5-5-5-5---|
Ab|--8-8-8-8-8-8--5-5-5-5-5-5--3-3-3-3-3-3-3---|
Eb|--6-6-6-6-6-6-------------------------------|


A chord diagramD5D5
See: the fire in the skies
A chord diagramC5C5
See: them devastate the land
A chord diagramF5F5    A chord diagramBb5Bb5          A chord diagramD5D5             A chord diagramC5C5
Mars attacks: the warlord chief commands

A chord diagramD5D5
See: the humans fight and die
A chord diagramC5C5
See: our planet laid to waste
A chord diagramF5F5    A chord diagramBb5Bb5                A chord diagramD5D5                   A chord diagramC5C5
Mars attacks: monsters invade the earth from space

( A chord diagramG5G5  A chord diagramA5A5 )

A chord diagramA5A5
It was then, in our darkest hour
A chord diagramC5C5
When everything seemed lost
A chord diagramG5G5
The hearts of men would not concede
A chord diagramA5A5
No matter what the cost

A chord diagramA5A5
They forged a sword of sound and steel
A chord diagramC5C5
Upon the Martian doors
A chord diagramG5G5
The voice of war would thunder there
A chord diagramD5D5
And "Mars would be no more"

A chord diagramD5D5
See: the Martian cities fall
A chord diagramC5C5
See: the death of the warrior tribe
A chord diagramF5F5    A chord diagramBb5Bb5          A chord diagramD5D5                 A chord diagramC5C5
Mars attacks, now their planet won't survive

A chord diagramD5D5
See: their world turn into ash
A chord diagramC5C5
See: the terror on their face
A chord diagramF5F5    A chord diagramBb5Bb5                   A chord diagramD5D5          A chord diagramC5C5
Mars explodes, cast out as rubble into space

A chord diagramD5D5
Woah-oh, oh, oh
A chord diagramC5C5
Woah-oh, oh, oh
A chord diagramF5F5    A chord diagramBb5Bb5               A chord diagramD5D5                    A chord diagramC5C5
Mars Attacks: monsters invade the earth from space

A chord diagramD5D5
Oooh-oh, oh, oh
A chord diagramC5C5
Oooh-oh, oh, oh
A chord diagramF5F5  A chord diagramBb5Bb5  A chord diagramD5D5  A chord diagramC5C5
Oooh-oh, oh, oh

Almost there ...

Sign in to get your own page with links to favourite songs and more. You are just one click away...

Login with Facebook Login with Google