Log in

One click and you are in

Login with Facebook Login with Google

Why sign up and log in

Guitar Tabs Explorer
Misfits guitar tabs for London dungeon

Guitar tabs with lyrics

revised, resubmitted.  (correct bass line)
revised by: Christian Liljequist


Album:  Collection
Tabbed by:  Christian Liljequist (lilviking3@hotmail.com)
Great little groovy-spooky number by Glenn and company


. = palm mute, ~ = vibrato, ^ = bend, / = slide up,
\ = slide down

Standard Tuning (E-A-D-G-B-E)


enter drums with this bass line


E---0--0--0--0--0--0--0--0--7--7--7--3--3--3--3--3  (x4)


guitar comes in w/ feedback then:

E----------------------------------------------------------------
B----------------------------------------------------------------
G----------------------------------------------------------------
D----------------------------------------------------------------
A--------2~------------------------------------------------------
E-\0-----------3----5~----3----2-----(x4)------------------------


Verse:
   A chord diagramE minorEm  (let all these ring)            A chord diagramE minorEm
E--0-----------------------------------0-------------------------
B--0-----------------------------------0-------------------------
G--0-----------------------------------0-------------------------
D--2-----------------------------------2-------------------------
A--2-----------------------------------2-------------------------
E--0-----------------------------------0-------------------------
    "They call us..."                    "Unholy livin' dead..."

   A chord diagramE minorEm                                  A chord diagramE minorEm
E--0-----------------------------------0-------------------------
B--0-----------------------------------0-------------------------
G--0-----------------------------------0-------------------------
D--2-----------------------------------2-------------------------
A--2-----------------------------------2-------------------------
E--0-----------------------------------0-------------------------
     "They had to lock..."               "Gonna send us..."


Chorus: (yeah, I know I skipped a verse, but it's the same stuff)
   A chord diagramE MajorE     A chord diagramFF                                  A chord diagramE minorEm
   .  .      .  .      .  .      .  .      (let ring)
E----------------------------------------------------------------
B----------------------------------------------------------------
G---------------(repeat this twice)------------------------------
D-------------------------------------------2--------------------
A--2--2--3---2--2--3---2--2--3---2--2--3----2--------------------
E--0--0--1---0--0--1---0--0--1---0--0--1----0--------------------


end of Chorus:

   A chord diagramE MajorE     A chord diagramFF                                 A chord diagramG MajorG
   .  .      .  .      .  .      .  .      .  .      .  .
E----------------------------------------------------------------
B----------------------------------------------------------------
G----------------------------------------------------------------
D----------------------------------------------------------------
A--------3---------3---------3---------3---5--5--5---5--5--5-----
E--0--0--1---0--0--1---0--0--1---0--0--1---3--3--3---3--3--3-----




E----------------------------------------------------------------
B----------------------------------------------------------------
G----------------------------------------------------------------
D----------------------------------------------------------------
A-5--5--5---5--5--5--------2~------------------------------------
E-3--3--3---3--3--3--0-----------3----5~----3----2---------------


That's basically all the movements, you should be able to figure
out the rest...pretty easy song.  There's a few places where your
own fills can really add some "penash" to the song...toy with it!
The little eerie feedback notes thru-out the song are something
I left out, but I usually play the song with more of a metal
attitude, a la Metallica.  I'm sure you can figure them out, if
you really really really wanted to!!!  ENJOY!!!  Comments,
corrections, whatever can be sent to:
itspunkrockwhogivesashit@yoohoo.com

Almost there ...

Sign in to get your own page with links to favourite songs and more. You are just one click away...

Login with Facebook Login with Google