Log in

One click and you are in

Login with Facebook Login with Google

Why sign up and log in

Guitar Tabs Explorer
Misfits guitar tabs for Living hell

Guitar tabs

|----------|----------------------|
|-fades in-|----------------------|
|----------|----------------------|
|-----7----|-7-7-7-7-7-7-7--3---5-| 4x
|-----7----|-7-7-7-7-7-7-7--3---5-|
|-----5----|-5-5-5-5-5-5-5--1---3-|

|-------------------------|    ---------------------------------------------------------|
|-------------------------|    ---------------------------------------------------------|
|-------------------------|    ---------------------------------------------------------|
|-7-7-7-7-7-7-7-----------|8x  -3---------7---------2-----------------------------------|
|-7-7-7-7-7-7-7-----------|    -3---------7---------2---------3-3-3-3-3-3-3-3-3-3-3-3---|
|-5-5-5-5-5-5-5--1~~--3~~-|    -1---------5---------0---------1-1-1-1-1-1-1-1-1-1-1-1-\-|
    pm---------

|--------------------------------------------------|
|--------------------------------------------------|
|--------------------------------------------------|
|-3---------7---------5---------5-5-5-5-5-5-5-5-5--|
|-3---------7---------5---------5-5-5-5-5-5-5-5-5--|
|-1---------5---------3---------3-3-3-3-3-3-3-3-3\-|

|-------------------------------------------|    -------------------------|
|-------------------------------------------|    -------------------------|
|-------------------------------------------|3x  -------------------------|
|-7-7-7-7-7-7-----------3-3-3-3-3-5-5-5-5-5-|    -3---------2-------------|
|-7-7-7-7-7-7--7--5--3--3-3-3-3-3-5-5-5-5-5-|    -3---------2-------------|
|-5-5-5-5-5-5-----------1-1-1-1-1-3-3-3-3-3-|    -1---------0-----0---3~~-|

|----------------------|
|----------------------|
|----------------------|
|-7-7-7-7-7-7-7--3---5-|4x
|-7-7-7-7-7-7-7--3---5-|
|-5-5-5-5-5-5-5--1---3-|

|-------------------------|---------------------------------------------------------|
|------play-8-times-------|---------------------------------------------------------|
|-------------------------|---------------------------------------------------------|
|-7-7-7-7-7-7-7-----------|-3---------7---------2-----------------------------------|
|-7-7-7-7-7-7-7-----------|-3---------7---------2---------3-3-3-3-3-3-3-3-3-3-3-3---|
|-5-5-5-5-5-5-5--1~~--3~~-|-1---------5---------0---------1-1-1-1-1-1-1-1-1-1-1-1-\-|
  pm---------

|--------------------------------------------------|
|--------------------------------------------------|
|--------------------------------------------------|
|-3---------7---------5---------5-5-5-5-5-5-5-5-5--|
|-3---------7---------5---------5-5-5-5-5-5-5-5-5--|
|-1---------5---------3---------3-3-3-3-3-3-3-3-3\-|

|-------------------------------------------|-------------------------|
|----------------play-3-times---------------|-------------------------|
|-------------------------------------------|-------------------------|
|-7-7-7-7-7-7-----------3-3-3-3-3-5-5-5-5-5-|-3---------2-------------|
|-7-7-7-7-7-7--7--5--3--3-3-3-3-3-5-5-5-5-5-|-3---------2-------------|
|-5-5-5-5-5-5-----------1-1-1-1-1-3-3-3-3-3-|-1---------0-----0---3~~-|

|----------------------|------------------|
|-----play-4-times-----|------------------|
|----------------------|------------------|
|-7-7-7-7-7-7-7--3---5-|-7~~--------------|
|-7-7-7-7-7-7-7--3---5-|-7~~--w/-feedback-|
|-5-5-5-5-5-5-5--1---3-|-5~~--------------|

|---------------------------------------------------------|
|---------------------------------------------------------|
|---------------------------------------------------------|
|-3---------7---------2-----------------------------------|
|-3---------7---------2---------3-3-3-3-3-3-3-3-3-3-3-3---|
|-1---------5---------0---------1-1-1-1-1-1-1-1-1-1-1-1-\-|

|--------------------------------------------------|
|--------------------------------------------------|
|--------------------------------------------------|
|-3---------7---------5---------5-5-5-5-5-5-5-5-5--|
|-3---------7---------5---------5-5-5-5-5-5-5-5-5--|
|-1---------5---------3---------3-3-3-3-3-3-3-3-3\-|

|-------------------------------------------|-------------------------|
|----------------play-3-times---------------|-------------------------|
|-------------------------------------------|-------------------------|
|-7-7-7-7-7-7-----------3-3-3-3-3-5-5-5-5-5-|-3---------2-------------|
|-7-7-7-7-7-7--7--5--3--3-3-3-3-3-5-5-5-5-5-|-3---------2-------------|
|-5-5-5-5-5-5-----------1-1-1-1-1-3-3-3-3-3-|-1---------0-----0---3~~-|

|----------------------|---|
|-----play-4-times-----|---|
|----------------------|---|
|-7-7-7-7-7-7-7--3---5-|-7-|
|-7-7-7-7-7-7-7--3---5-|-7-|
|-5-5-5-5-5-5-5--1---3-|-5-|

Almost there ...

Sign in to get your own page with links to favourite songs and more. You are just one click away...

Login with Facebook Login with Google