Log in

One click and you are in

Login with Facebook Login with Google

Why sign up and log in

Guitar Tabs Explorer
Misfits bass tabs for Living hell

Bass tabs

Misfits - Living Hell
Famous Monsters (1999)

[Main] x4

F#|-----------------------------|
C#|-----------------------------|
G#|-----------------------------|
D#|-5--5--5-5-5-5-1--1-3--3-0---|

[Verse] x4

F#|------------------------|
C#|------------------------|
G#|------------------------|
D#|-5--5-5-5-5-5-5-1--3--0-|

[Pre Chorus]

F#|-----------------|-----------------|-----------------|-----------------------|
C#|-----------------|-----------------|-----------------|-----------------------|
G#|-----------------|-----------------|-----------------|--------------------7\-|
D#|-1-1-1-1-1-1-1-1-|-5-5-5-5-5-5-5-5-|-0-0-0-0-0-0-0-0-|-1--0-1--0-1-0-1--0----|

F#|-----------------|-----------------|-----------------|-----------------|
C#|-----------------|-----------------|-----------------|-----------------|
G#|-----------------|-----------------|-----------------|-----------------|
D#|-1-1-1-1-1-1-1-1-|-5-5-5-5-5-5-5-5-|-3-3-3-3-3-3-3-3-|-3-3-3-3-3-3-3-3-|

[Chorus]

F#|-----------------|-----------------|-----------------|-------------------|
C#|-----------------|-----------------|-----------------|-------------------|
G#|-----------------|-----------------|-----------------|------------3------|
D#|-5-5-5-5-5-0-8-0-|-1-1-1-1-3-3-3-3-|-5-5-5-5-5-0-8-0-|-1-1-1-1-3-3---3-3-|

F#|-----------------|-----------------|-----------------|-----------------|
C#|-----------------|-----------------|-----------------|-----------------|
G#|-----------------|-----------------|-----------------|-----------------|
D#|-5-5-5-5-5-0-8-0-|-1-1-1-1-3-3-3-3-|-1-1-1-1-1-1-1-1-|-0-0-0-0-0---3---|

[End]

F#|-----|
C#|-----|
G#|-----|
D#|--5--|


Order:

Main
Verse x2
Pre Chorus
Chorus
Main
Verse x2
Pre Chorus
Chorus
Main x2
Pre Chorus
Chorus
Main
End

************************************

| \   Slide down

Almost there ...

Sign in to get your own page with links to favourite songs and more. You are just one click away...

Login with Facebook Login with Google