Log in

One click and you are in

Login with Facebook Login with Google

Why sign up and log in

Guitar Tabs Explorer
Misfits guitar chords for Hybrid moments

Guitar chords

Misfits-Hybrid moments-guitar tab.By Michael L.

Part 1
E---------------------------------------------------------------------------
B---------------------------------------------------------------------------
G-7-7-7-7-7-7-7-7---------------------------------8-8-8-8-7-7-7-7---
D-7-7-7-7-7-7-7-7-9-9-9-9-9-9-9-9-5-5-5-5-5-5-5-5-8-8-8-8-7-7-7-7----
A-5-5-5-5-5-5-5-5-9-9-9-9-9-9-9-9-5-5-5-5-5-5-5-5-6-6-6-6-5-5-5-5----
E-----------------7-7-7-7-7-7-7-7-3-3-3-3-3-3-3-3-----------------------


Part 2
E---------------------------------------------------------------------------
B---------------------------------------------------------------------------
G-------------------------------7-7-7-7-----------------------------
D-9-9-9-9-7-7-7-7-7-7-7-5-5-5-5-7-7-7-7-7-7-7-7-5-5-5-5-7-7-7-7--------
A-9-9-9-9-7-7-7-7-7-7-7-5-5-5-5-5-5-5-5-7-7-7-7-5-5-5-5-7-7-7-7--------
E-7-7-7-7-5-5-5-5-5-5-5-3-3-3-3---------5-5-5-5-3-3-3-3-5-5-5-5---------

It goes:
Part 1   2 times
Part 2   1 time
Part 1   2 times
Part 2   1 time
Part 1   2 times

Hope it works

Other versions of Hybrid Moments

Hybrid momentsTabs

Almost there ...

Sign in to get your own page with links to favourite songs and more. You are just one click away...

Login with Facebook Login with Google