Log in

One click and you are in

Login with Facebook Login with Google

Why sign up and log in

Guitar Tabs Explorer
Misfits guitar tabs for Hollywood babylon

Guitar tabs

Tuning: Standard

(intro/verse)
e|-------------|-------------------------------------------------------------|
B|-------------|-------------------------------------------------------------|
G|-------------|-------------------------------------------------------------|
D|-------------|-------------------------------------------------------------|
A|-------------|-------------------------------------------------------------|
E|--0-0-3-0----|-------------------------------------------------------------|

(riff 2)
e|-----------------------------------------0:--------------------------------|
B|-----------------------------------------0:--------------------------------|
G|-----------------------------------------0:--------------------------------|
D|-----------------------------------------2---------------------------------|
A|--7-7-7-7-7-7-7-7--8-8-8-8-8-8-8-8--7-7--2---------------------------------|
E|--5-5-5-5-5-5-5-5--6-6-6-6-6-6-6-6--5-5--0---------------------------------|

(chorus)
e|------------------------------------0-|------------------------------------|
B|------------------------------------0-|------------------------------------|
G|------------------------------------0-|------------------------------------|
D|------------------------------------2-|------------------------------------|
A|--8-8-8-8-8-8-8-8--5-5-5-5-5-5-5-5--2-|------------------------------------|
E|--6-6-6-6-6-6-6-6--3-3-3-3-3-3-3-3--0-|0-0-3-0--0-0-3-0--0-0-3-0--0-0-3-0--|

(riff 4)
e|---------------------------------------------------------------------------|
B|---------------------------------------------------------------------------|
G|---------------------------------------------------------------------------|
D|-----------------------------8-8-------------------------------------------|
A|-----------------------------8-8-------------------------------------------|
E|--0-0-3-0--0-0-3-0--0-0-3-0--6-6-------------------------------------------|

(outro)
e|---------------------------------------------------------------------------|
B|---------------------------------------------------------------------------|
G|---------------------------------------------------------------------------|
D|-----------------------------8-8-------2-----------------------------------|
A|-----------------------------8-8-------2-----------------------------------|
E|--0-0-3-0--0-0-3-0--0-0-3-0--6-6-------0-----------------------------------|

intro     12x
riff 2    1x
verse     10x
riff 2    1x
chorus    2x
verse     7x
riff 2    1x
verse     10x
riff 2    2x
chorus    2x(2nd time without 2nd measure)
riff 4    4x
verse     10x
riff 2    1x
verse     10x
riff 2    1x
verse     4x
chorus    4x(5th time without 2nd measure)
outro     1x


| : Let ring
| /  slide up
|   slide down
| h  hammer-on
| p  pull-off
| ~  vibrato
| +  harmonic
| x  Mute note

Almost there ...

Sign in to get your own page with links to favourite songs and more. You are just one click away...

Login with Facebook Login with Google