Log in

One click and you are in

Login with Facebook Login with Google

Why sign up and log in

Guitar Tabs Explorer
Misfits guitar tabs for Helena

Guitar tabs

This is the intro bit.

e|---------------------------------------------|
B|---------------------------------------------|
G|-----5----------5----------------------------|
D|--7--5--5----7--5--5---0-5-6-----------------|
A|--7--3--5----7--3--5---0-5-6-----------------|
E|--5-----3----5-----3---0-3-4-----------------|



Then just repeat this throughout the whole song..

e|---------------------------------------------|
B|---------------------------------------------|
G|-----5---------------------------------------|
D|--7--5--5--0-5-6-----------------------------|
A|--7--3--5--0-5-6-----------------------------|
E|--5-----3--0-3-4-----------------------------|

Good luck!

e-mail me if you have any questions or comments.
My email address is dumb_struck_192@hotmail.com

Other versions of Helena

HelenaChords

Almost there ...

Sign in to get your own page with links to favourite songs and more. You are just one click away...

Login with Facebook Login with Google