Log in

One click and you are in

Login with Facebook Login with Google

Why sign up and log in

Guitar Tabs Explorer
Misfits bass tabs for Helena

Bass tabs

Band: Misfits
Album: Famous Monsters(1997)
Tunning: Eb.Ab.Db.Gb.

0:14
Gb|---------------|
Db|---------------|
Ab|---------2\----|
Eb|0-2-3-4\----2--|

0:17
Gb|---------------|
Db|---------------| X9
Ab|---------2-----|
Eb|0-2-3-4-----2--|

0:49
Gb|-----------------------------|
Db|-----------------------------| X3
Ab|-------------2--2-2----------|
Eb|0-2-3-4--4-4--------2--2-2-2-|

1:00
Gb|-----------------------------|
Db|-----------------------------|
Ab|-------------2--2-2----------|
Eb|0-2-3-4--4-4---------2-------|

1:08
Gb|--------------------------------|
Db|--------------------------------|
Ab|--------------------------------|
Eb|0---------------0---------------|

1:13
Gb|--------------------------------|
Db|--------------------------------|
Ab|7778885557773355----------------|
Eb|----------------7778885557773355|

1:17
Gb|----------------------------------|
Db|----------------------------------| X2
Ab|7----------------7----------------|
Eb|--7-8-10-8-7-5-7---7-8-10-88-8-87-|

1:26
Gb|--------------------------------|
Db|--------------------------------| X2
Ab|77777777777777775555555555555555|
Eb|--------------------------------|

1:34
Gb|-------------------------------|
Db|-------------------------------| X2
Ab|77777777-10-8-7-55555555-5-3-5-|
Eb|-------------------------------|

1:43
Gb|----------------------------------|
Db|----------------------------------| X2
Ab|7----------------7----------------|
Eb|--7-8-10-8-7-5-7---7-8-10-88-8-87-|

1:51
Gb|--------------------------------|
Db|--------------------------------| X2
Ab|77777777777777775555555555555555|
Eb|--------------------------------|

2:00
Gb|-------------------------------|
Db|-------------------------------| X2
Ab|77777777-10-8-7-55555555-5-3-5-|
Eb|-------------------------------|

2:08
Gb|--------------------------------|
Db|--------------------------------| X2
Ab|7778885557773355----------------|
Eb|----------------7778885557773355|

2:17
Gb|--------------------------------|
Db|--------------------------------| X2
Ab|7--8/-5--7/-3-5-----------------|
Eb|----------------7--8/-5--7/-3-5-|

2:26
Gb|-----------------------------------------------|
Db|-----------------------------------------------|
Ab|-----------------------------------------------|
Eb|7-77777--3-5-8-88888-3-5-7-77777-3-3-5-5-2-----|

2:40
Gb|---------|
Db|---------| X2
Ab|---2-----|
Eb|4-----2--|

2:45
Gb|-----------------------------|
Db|-----------------------------| X7
Ab|-------------2--2-2----------|
Eb|0-2-3-4--4-4--------2--2-2-2-|

3:08
Gb|-----------------------------|
Db|-----------------------------|
Ab|-------------2--2-2----------|
Eb|0-2-3-4--4-4---------4------4|



************************************

| b  Bend
| \  Slide down
| /  Slide up

Almost there ...

Sign in to get your own page with links to favourite songs and more. You are just one click away...

Login with Facebook Login with Google