Log in

One click and you are in

Login with Facebook Login with Google

Why sign up and log in

Guitar Tabs Explorer
Misfits guitar tabs for Great balls of fire

Guitar tabs

Band: Misfits

Tuning: Normal


Riff 1:
E--------------------------------
B--------------------------------
G--------------------------------
D----------------2---------------
A-5-6-7-8--8-7-6-2--------5-6-7-8
E-3-4-5-6--6-5-4-0 x's 2--3-4-5-6
pm. . .    . . .          . . .

Riff 2:
E------------------------------------------
B------------------------------------------
G------------------------------------------
D------------------------------------------
A-5-6-7-8-88888888-5555555-8888888-555555-8
E-3-4-5-6-66666666-3333333-6666666-333333-6
pm. . .

Riff 3:
E----------------------------------
B----------------------------------
G----------------------------------
D-------2-22222222---------222222--
A-8-7-6-2-22222222-5555555-222222-5
E-6-5-4-0-00000000-3333333-000000-3
pm. . .

Riff 4:
E-------------------------------------------------------
B-------------------------------------------------------
G-------------------------------------------------------
D-------------------------------------------------------
A-5-6-7-8--------5555555--8888888-5555555-888888-55555-8
E-3-4-5-6-x's 3--3333333--6666666-3333333-666666-33333-6
pm. . .

Riff 2: Under solo (alternate between A chord diagramA#A# and A chord diagramG MajorG)

Riff 3

Riff 4

End:
E--------
B--------
G--------
D--------
A-5-6-7-8
E-3-4-5-6
pm. . .

Almost there ...

Sign in to get your own page with links to favourite songs and more. You are just one click away...

Login with Facebook Login with Google