Log in

One click and you are in

Login with Facebook Login with Google

Why sign up and log in

Guitar Tabs Explorer
Misfits guitar tabs for Devils whorehouse

Guitar tabs

From TristamD@aol.com Thu May  8 16:48:22 1997

This is the way that I play devil's Whorehouse by The Misfits, and I think it
sounds the same as it was recorded on the albums "Walk Among US," and
"Collectioon II."

----------------------------------|
Devil's Whorehouse
----------------------------------|

Intro....

(drum 1 , 2)

Verses....

4|-----------4---5------4-------5---7---9----|
5|-----------4---5------4-------5---7---9----|
6|-------0---2--3---0--2---0--3---5---7----|

she works at the devil's whorehouse....

Chorus...

1st time play:
4|--5--5--5--5----9--9---7--7--10101010---5---5--5---5---|
5|--3--3--3--3----7--7---5--5--8--8--8---8---3---3--3---3---|
6|----------------------------------------------------------------------|
2nd time play:
4|--5--5--5--5---9--9--7--7-10101010-12-12-12-12--|
5|--3--3--3--3---7--7--5--5--8--8--8--8-10-10-10-10--|
6|------------------------------------------------------------------|
when I sin I sin real goood...when I sin I sin for sure......

Bridge.....

4|----7-7-7-7-7-7-7-7-7-7-7-7---2---3---|
5|----5-5-5-5-5-5-5-5-5-5-5-5---2---3---|
6|------------------------------------------------|
come alive in the house that screams.....

That's all, I'm not going to post the order of the song because it is very
easy to figure out.  I hope this helps!

Tristam Drager
Tristamd@aol.com

Almost there ...

Sign in to get your own page with links to favourite songs and more. You are just one click away...

Login with Facebook Login with Google