Log in

One click and you are in

Login with Facebook Login with Google

Why sign up and log in

Guitar Tabs Explorer
Misfits bass tabs for Descending angel

Bass tabs with lyrics

Band-The Misfits
Song-Descending Angel
Album-Famous Monsters
Tabber-Aaron Shanley

All of my own tabbing work. Standard Tuning (E A D G)

INTRO

-----------------------------------------------------------------
-----------------------------------------1----------------------
5--5--555--8--8--888--3--3--33-------------------------
---------------------------------------------33333333------  x1

-----------------------------------------------------------------
-----------------------------------------1-----------------------
5--5--555--8--8--888--3--3--33-------------------------
---------------------------------------------333333333-----  x1

VERSE'S

-----------------------------------------------------------------
----------------------------------------------------------------
5--5--5--5--8--8--8--8--3--3--3--3----------------------
---------------------------------------------55555555------  x3

----------------------------------------------------------------------
----------------------------------------------------------------------
5--5--5--5--8--8--8--8--3--3--3--3---------------------------
----------------------------------------------*SEE BELOW---  x1
*At this point in the song (everytime he says "and soon you'll be alone", or
when all the music stops and all you hear is him singing), it sounds best to
improvise a little slide from anywhere on the E or A string. If you want to
do the song EXACTY though, do not add a slide. But, personaly, I think it
makes the song better. Experiment.

CHORUS #1

-----------------------------------------------------------------
---------------------------------------------------------------
5--5--555--8--8--888--3--3--333-------------------------
---------------------------------------------55555555------   x1

-------------------------------------------------
-------------------------------------------------
5--5--555--8--8--888--3--3--333-------
---------------------------------------------5---  x1

-----------------------------------------------------------------
---------------------------------------------------------------
5--5--555--8--8--888--3--3--333-------------------------
---------------------------------------------55555555------  x1

-----------------------------------------------------------------
---------------------------------------------------------------
5--5--555--8--8--888--3--3--333-------------------------
---------------------------------------------555555555------  x1

CHORUS #2 (LEAD INTO SOLO)
Same as Chorus #1 except final riff end on:

-----------------------------------------
----------------------------------------
----------------------------------------
5555555555555555-------------  x1

SOLO
Same as Intro

OUTRO
Same as Chorus #1 except final riff gradually slow down. Final note you hit
is:

--------
--------
--3-----
--------- x1

SONG ORDER
Intro
Verse
Chorus #1
Verse
Chorus #2
Solo
Chorus #2
Outro

Almost there ...

Sign in to get your own page with links to favourite songs and more. You are just one click away...

Login with Facebook Login with Google