Log in

One click and you are in

Login with Facebook Login with Google

Why sign up and log in

Guitar Tabs Explorer
Misfits tabs for Death comes ripping

Guitar tabs

|--------------|
|--------------|
|---------10-9-| x4
|---------10-9-|
|-7-7-7-7-8--7-|
|-5-5-5-5------|

|--------------|
|--------------|
|---------10-9-| x4
|---------10-9-|
|-7-7-7-7-8--9-|
|-5-5-5-5------|
    * * *
|-------------------------|
|-------------------------|
|-------------------------|
|-7-7-7-7-7-7-7-7-7-7-7-7-|
|-5-5-5-5-5-5-5-5-5-5-5-5-|
|-------------------------|

|--------------|
|--------------|
|---------10-9-| x8
|---------10-9-|
|-7-7-7-7-8--9-|
|-5-5-5-5------|
    * * *
|---------------------------------|
|---------------------------------|
|---------------------------------| x4
|-7-7-7-7-7-7-7-7-3-3-3-3---------|
|-5-5-5-5-5-5-5-5-1-1-1-1-5-5-5-5-|
|-------------------------3-3-3-3-|

|--------------|
|--------------|
|---------10-9-| x8
|---------10-9-|
|-7-7-7-7-8--9-|
|-5-5-5-5------|
    * * *
|---------------------------------|
|---------------------------------|
|---------------------------------| x8
|-7-7-7-7-7-7-7-7-3-3-3-3---------|
|-5-5-5-5-5-5-5-5-1-1-1-1-5-5-5-5-|
|-------------------------3-3-3-3-|

|--------------|
|--------------|
|---------10-9-| x8
|---------10-9-|
|-7-7-7-7-8--9-|
|-5-5-5-5------|
    * * *
|---|
|---|
|---|
|---|
|-7-|
|-5-|

ⓘ Guitar tab for 'Death Comes Ripping' by Misfits, a hardcore punk band formed in 1977 from Lodi, USA

Other versions of Death Comes Ripping

Death comes rippingChords

Almost there ...

Sign in to get your own page with links to favourite songs and more. You are just one click away...

Login with Facebook Login with Google