Log in

One click and you are in

Login with Facebook Login with Google

Why sign up and log in

Guitar Tabs Explorer
Misfits guitar tabs for Day of the dead

Guitar tabs

-------------------------------------------------------------------------------
		  Day of the Dead - Misfits
-------------------------------------------------------------------------------

Tuning: 1/2 step down

(riff 1)
eb|---------------------------------------------------------------------------|
Bb|---------------------------------------------------------------------------|
Gb|---------------------------------------------------------------------------|
Db|-----------7--(trill)------------------------------------------------------|
Ab|--2--5--7--5--78787878--9-7-5-4--------------------------------------------|
Eb|--0--3--5---------------7-5-3-2--------------------------------------------|
(PM) .  .  .  .

(riff 2)
eb|---------------------------------------------------------------------------|
Bb|---------------------------------------------------------------------------|
Gb|---------------------------------------------------------------------------|
Db|---------------------------------------------------------------------------|
Ab|--7---7---7---4---4---4----------------------------------------------------|
Eb|--5-0-5-0-5-0-2-0-2-0-2----------------------------------------------------|

(riff 3)
eb|---------------------------------------------------------------------------|
Bb|---------------------------------------------------------------------------|
Gb|---------------------------------------------------------------------------|
Db|---------------------------------------------------------------------------|
Ab|--7--7-7-7-7-7-7-7-7-7--4--4-4-4-4-4-4-4-4-4-------------------------------|
Eb|--5--5-5-5-5-5-5-5-5-5--2--2-2-2-2-2-2-2-2-2-------------------------------|
(PM)   . . . . . . . . .     . . . . . . . . .

(riff 4)
eb|---------------------------------------------------------------------------|
Bb|---------------------------------------------------------------------------|
Gb|---------------------------------------------------------------------------|
Db|---7-7-7-7-7--9------------------------------------------------------------|
Ab|---5-5-5-5-5--7------------------------------------------------------------|
Eb|---------------------------------------------------------------------------|

(riff 5)
eb|---------------------------------------------------------------------------|
Bb|---------------------------------------------------------------------------|
Gb|---------------------------------------------------------------------------|
Db|--7:----------------7:-----9:----------------------------------------------|
Ab|--5:------7:--------5:-----7:------9-7-5-4---------------------------------|
Eb|----------5:-----------------------7-5-3-2---------------------------------|

(riff 6)
eb|---------------------------------------------------------------------------|
Bb|---------------------------------------------------------------------------|
Gb|---------------------------------------------------------------------------|
Db|-------------------------------7-7-7-7-7--9--------------------------------|
Ab|--7---7---7---4---4---4--------5-5-5-5-5--7--------------------------------|
Eb|--5-0-5-0-5-0-2-0-2-0-2----------------------------------------------------|

(riff 7a)                                             (riff 7b)
eb|-------------------------------------|-------------------------------------|
Bb|-------------------------------------|-------------------------------------|
Gb|-------------------------------------|-------------------------------------|
Db|---7-7-7-7-7--9---------------------|-------------------------------------|
Ab|---5-5-5-5-5--7---------------------|--------7:------7--------------------|
Eb|-------------------------------------|--------5:------5--------------------|

(riff 8)
eb|---------------------------------------------------------------------------|
Bb|---------------------------------------------------------------------------|
Gb|---------------------------------------------------------------------------|
Db|-----------------------------9-8-7-6-5---------5:-4:----2-2----------------|
Ab|--5--5--5--5--7--7--7--7-----7-6-5-4-3--2-2-2--3:-2:----2-2----------------|
Eb|--3--3--3--3--5--5--5--5----------------0-0-0-----------0-0----------------|
(PM)                                       . . .


Order:
riff 1      2x
riff 2      2x
riff 3      2x
riff 4      1x
riff 2      2x
riff 3      2x
riff 4      1x
riff 2      2x
riff 5      1x
riff 2      2x
riff 5      1x
riff 6      3x
riff 2      1x
riff 7a     3x
riff 7b     1x
riff 8      1X




| :  Hold chord
| PM Palm mute
| /  slide up
|   slide down
| h  hammer-on
| p  pull-off
| ~  vibrato
| +  harmonic
| x  Mute note

Other versions of Day Of The Dead

Day of the deadChords

Almost there ...

Sign in to get your own page with links to favourite songs and more. You are just one click away...

Login with Facebook Login with Google