Log in

One click and you are in

Login with Facebook Login with Google

Why sign up and log in

Guitar Tabs Explorer
Misfits bass tabs for Blacklight

Bass tabs

Misfits - Blacklight
American Psycho (1997)

[Intro Pt I]

F#|-------------|-------------|-------------|
C#|-------------|-------------|-------------|
G#|-------------|-3-3-3-3-3-0-|-0-----------|
D#|-1-1-1-1-1-0-|-------------|-------------|

[Intro Pt II]

F#|-------------|---------------|
C#|-------------|---------------|
G#|-------------|-3-3-3-3-3-----|
D#|-1-1-1-1-1-0-|-----------5\--|
[Pre Verse]

F#|----------------|-----------------|-----------------|-----------------|
C#|----------------|-----------------|-----------------|-----------------|
G#|----------------|-----------------|-----------------|-----------------|
D#|-5---5-5-5-5-3--|-5-5-5-5-5-5-8-5-|-5-5-5-5-5-5-3---|-5-5-5-5-5-5-8-5-|

[Verse]

F#|----------------|-----------------|-----------------|-----------------|
C#|----------------|-----------------|-----------------|-----------------|
G#|----------------|-----------------|-----------------|-----------------|
D#|-5---5-5-5-5-3--|-5-5-5-5-5-5-8-5-|-5-5-5-5-5-5-3---|-5-5-5-5-5-5-8-5-|

F#|----------------|-----------------|-----------------|-----------------|
C#|----------------|-----------------|-----------------|-----------------|
G#|----------------|-----------------|-----------------|-----------------|
D#|-5-5-5-5-5-5-3--|-5-5-5-5-5-5-8-5-|-5-5-5-5-5-5-3---|-1-1-1-1-1-1-1-1-|

[Chorus]

F#|-----------------|-----------------|-----------------|-----------------|
C#|-----------------|-----------------|-----------------|-----------------|
G#|-----------------|-----------------|-----------------|-----------------|
D#|-5-5-5-5-5-5-5-5-|-1-1-1-1-1-1-1-1-|-5-5-5-5-5-5-5-5-|-1-1-1-1-1-1-1-1-|


[Post Chorus]

F#|-----------------|-----------------|
C#|-----------------|-----------------|
G#|-5-5-5-5-5-5-5-5-|-5-5-5-5-7-7-----|
D#|-----------------|-----------------|

[End]

F#|--------|
C#|--------|
G#|--------|
D#|-3-5----|


Order:
Intro Pt I
Intro Pt II
Pre Verse
Verse
Chorus x2
Post Chorus
Intro Pt II
Verse
Chorus x2
Post Chorus
Chorus x2
Post Chorus
Intro Pt I x2
End

************************************

| \   Slide down

Almost there ...

Sign in to get your own page with links to favourite songs and more. You are just one click away...

Login with Facebook Login with Google