Log in

One click and you are in

Login with Facebook Login with Google

Why sign up and log in

Guitar Tabs Explorer
Misfits guitar tabs for Astro zombies

Guitar tabs

Astro Zombies - Misfits

I did this tab by my self, with a help of my friend Gogo Boy André White,
couse we're full of wrong tabs for this music!

^ = Slide

|----------------------------------------|
|-----------222--------------------------|
|-555^4-44--222--------------------------| X2
|-555^4-44--222--5-55---3-3-333^5-55-555-|
|-333^2-24-------5-55---3-3-333^5-55-555-|
|----------------3-33---1-1-111^3-33-333-|

~Woooo, All i want, to knooooowwoooowoo...
|--------------------------------------------|
|--------------------------------------------|
|-5-555555^10101010101010--------------------| X2
|-5-555555^10101010101010-3-3-333^5-55-555---|
|-3-333333^8-8-8-8-8-8-8--3-3-333^5-55-555---|
|-------------------------1-1-111^3-33-333---|

~With just one toutch of my burning hand...
|------------------------------------------------------------------------|
|------------------------------------------------------------------------|
|-5-55555555555555-2-2222222222222222------------------------------------| X2
|-5-55555555555555-2-2222222222222222-2-22222222222222-3-333333^5-555555-|
|-3-33333333333333-0-0000000000000000-2-22222222222222-3 333333^5-555555-|
|-------------------------------------0-00000000000000-1-111111^3-333333-|

~All i wanna say, all i gotta do...
|-----------------------------------------------------------------|
|-----------------------------------------------------------------|
|-5-5555555555555-----------------7-7777777777777-----------------| X2
|-5-5555555555555-7-7777777777777-7-7777777777777-5-5555555555555-|
|-3-3333333333333-7-7777777777777-5-5555555555555-5-5555555555555-|
|-----------------5-5555555555555-----------------3-3333333333333-|

~Woooooo, all i want, to knooowowooo...
|--------------------------------------------|
|--------------------------------------------|
|-5-555555^10101010101010--------------------| X2
|-5-555555^10101010101010-3-3-333^5-55-555---|
|-3-333333^8-8-8-8-8-8-8--3-3-333^5-55-555---|
|-------------------------1-1-111^3-33-333---|

~With just one toutch of my burning hand...
|------------------------------------------------------------------------|
|------------------------------------------------------------------------|
|-5-55555555555555-2-2222222222222222------------------------------------| X2
|-5-55555555555555-2-2222222222222222-2-22222222222222-3-333333^5-555555-|
|-3-33333333333333-0-0000000000000000-2-22222222222222-3 333333^5-555555-|
|-------------------------------------0-00000000000000-1-111111^3-333333-|

~All i wanna say, all i gotta do...
|-----------------------------------------------------------------|
|-----------------------------------------------------------------|
|-5-5555555555555-----------------7-7777777777777-----------------| X2
|-5-5555555555555-7-7777777777777-7-7777777777777-5-5555555555555-|
|-3-3333333333333-7-7777777777777-5-5555555555555-5-5555555555555-|
|-----------------5-5555555555555-----------------3-3333333333333-|

~Woooooo, all i want, to knooowowooo...
|--------------------------------------------|
|--------------------------------------------|
|-5-555555^10101010101010--------------------| X4
|-5-555555^10101010101010-3-3-333^5-55-555---|
|-3-333333^8-8-8-8-8-8-8--3-3-333^5-55-555---|
|-------------------------1-1-111^3-33-333---|

ENDING
|----------------------------------------|
|-----------222--------------------------|
|-555^4-44--222--------------------------|
|-555^4-44--222--5-55---3-3-333^5-55-555-|
|-333^2-24-------5-55---3-3-333^5-55-555-|
|----------------3-33---1-1-111^3-33-333-|

|-------------------------------------------------|
|-----------222-----------------------------------|
|-555^4-44--222---------------------------------5-|
|-555^4-44--222--5-55---3-3-3-3-3-3^5-5-5-5-5-5-5-|
|-333^2-24-------5-55---3-3-3-3-3-3^5-5-5-5-5-5-3-|

Almost there ...

Sign in to get your own page with links to favourite songs and more. You are just one click away...

Login with Facebook Login with Google