Abominable Dr Phibes by The Misfits

Abominable Dr Phibes tab by The Misfits

Guitar tabs

No verses, bridges, choruses or solos, just what is written.
There are also no lyrics in the song.



Abominable Dr. Phibes
By The Misfits
from the album American Psycho

As Transcribed by
Doug Schaffer
(Balsac982@aol.com)

*THIS IS IN STANDARD TUNING*

It starts with the drums...

E B  E C (2x)
D C  A B
C B  G A
E B  E C (2x)
D C  A B
C B  G A
G  F#  E (Transitions into American Psycho)

For Those of You Who Can't Read Chords and Need Tab...

G-----------------------------------------------------------------------------
D--------4--------5-------4--------5---7---5-------------5--4-----------
A---2---2---2---3---2---2---2---3---5---3---7---9---3---2---5---7-
E---0--------0-------0--------0------------------5--7-------------3---5-

G-----------------------------------------------------------------------------
D--------4--------5-------4--------5---7---5-------------5--4-----------
A---2---2---2---3---2---2---2---3---5---3---7---9---3---2---5---7-
E---0--------0-------0--------0------------------5--7-------------3---5-

G-----------------------------------------------------------------------------
D-----------------------------------------------------------------------------
A---5---4---2---------------------------------------------------------------
E---3---2---0---------------------------------------------------------------

Find guitar tabs and chords

A B C D E F G H I J K L M N O P Q R S T U V W X Y Z #