Log in

One click and you are in

Login with Facebook Login with Google

Why sign up and log in

Guitar Tabs Explorer
Tom Misch bass tabs for Disco yes

Bass tabs

Tuning: Standard (E A D G)

Key: Em

Difficulty: Intermediate
Main Lick X8
 1                                2
G|--------------------------------|--------------------------------|
D|--------------------------------|--------------------------------|
A|------------------------5---X-7-|--7-----------------2---3---2---|
E|5-------7-------8---------------|----0---2---3---5---------------|

  1 e + a 2 e + a 3 e + a 4 e + a  1 e + a 2 e + a 3 e + a 4 e + a

 3                                4
G|--------------------------------|--------------------------------|
D|----7-------9-------10----------|--------------------------------|
A|------------------------5---X-7-|--7-----------------2---3---2---|
E|5-------7-------8---------------|----0---2---3---5---------------|

  1 e + a 2 e + a 3 e + a 4 e + a  1 e + a 2 e + a 3 e + a 4 e + a



Chorus X2
 1                                2
G|--------------------------------|--------------------------------|
D|--------------------------------|--------------------------------|
A|--------------------------------|--------------------------------|
E|5-------5-------5-----5-------1-|--------------------------------|

  1 e + a 2 e + a 3 e + a 4 e + a  1 e + a 2 e + a 3 e + a 4 e + a

1                                2
G|--------------------------------|--------------------------------|
D|--------------------------------|--------------------------------|
A|--------------------------------|--------------------------------|
E|0-------0-------0-----0-------1-|--------------------------------|

  1 e + a 2 e + a 3 e + a 4 e + a  1 e + a 2 e + a 3 e + a 4 e + a


Main Lick X8
 1                                2
G|--------------------------------|--------------------------------|
D|--------------------------------|--------------------------------|
A|------------------------5---X-7-|--7-----------------2---3---2---|
E|5-------7-------8---------------|----0---2---3---5---------------|

  1 e + a 2 e + a 3 e + a 4 e + a  1 e + a 2 e + a 3 e + a 4 e + a

 3                                4
G|--------------------------------|--------------------------------|
D|----7-------9-------10----------|--------------------------------|
A|------------------------5---X-7-|--7-----------------2---3---2---|
E|5-------7-------8---------------|----0---2---3---5---------------|

  1 e + a 2 e + a 3 e + a 4 e + a  1 e + a 2 e + a 3 e + a 4 e + a



Chorus X2
 1                                2
G|--------------------------------|--------------------------------|
D|--------------------------------|--------------------------------|
A|--------------------------------|--------------------------------|
E|5-------5-------5-----5-------1-|--------------------------------|

  1 e + a 2 e + a 3 e + a 4 e + a  1 e + a 2 e + a 3 e + a 4 e + a

1                                2
G|--------------------------------|--------------------------------|
D|--------------------------------|--------------------------------|
A|--------------------------------|--------------------------------|
E|0-------0-------0-----0-------1-|--------------------------------|

  1 e + a 2 e + a 3 e + a 4 e + a  1 e + a 2 e + a 3 e + a 4 e + a


Post-chorus
 1                                2
G|2-2-----4-4-----5-5-----7---X-9-|--------------------------------|
D|--------------------------------|--------------------------------|
A|--------------------------------|--------------------------------|
E|--------------------------------|--------------------------------|

  1 e + a 2 e + a 3 e + a 4 e + a  1 e + a 2 e + a 3 e + a 4 e + a

 3                                4
G|2-2-----------------------------|--------------------------------|
D|--------------------------------|--------------------------------|
A|------------------------5---X-7-|--------------------------------|
E|--------------------------------|--------------------------------|

  1 e + a 2 e + a 3 e + a 4 e + a  1 e + a 2 e + a 3 e + a 4 e + a

 5                                6
G|2-2-----4-4-----5-5-----7---X-9-|--9-7---9---12-/16-16-----------|
D|--------------------------------|--------------------------------|
A|--------------------------------|--------------------------------|
E|--------------------------------|--------------------------------|

  1 e + a 2 e + a 3 e + a 4 e + a  1 e + a 2 e + a 3 e + a 4 e + a

 7                                8
G|2-2-----------------------------|--------------------------------|
D|--------------------------------|--------------------------------|
A|------------------------5---X-7-|----------------14\12\10\8\6\4\2|
E|--------------------------------|--------------------------------|

  1 e + a 2 e + a 3 e + a 4 e + a  1 e + a 2 e + a 3 e + a 4 e + a


Main Lick X2
 1                                2
G|--------------------------------|--------------------------------|
D|--------------------------------|--------------------------------|
A|------------------------5---X-7-|--7-----------------2---3---2---|
E|5-------7-------8---------------|----0---2---3---5---------------|

  1 e + a 2 e + a 3 e + a 4 e + a  1 e + a 2 e + a 3 e + a 4 e + a

 3                                4
G|--------------------------------|--------------------------------|
D|----7-------9-------10----------|--------------------------------|
A|------------------------5---X-7-|--7-----------------2---3---2---|
E|5-------7-------8---------------|----0---2---3---5---------------|

  1 e + a 2 e + a 3 e + a 4 e + a  1 e + a 2 e + a 3 e + a 4 e + a

3:15~3:30 Rest


************************************

| /  Slide up
| \  Slide down


************************************

Almost there ...

Sign in to get your own page with links to favourite songs and more. You are just one click away...

Login with Facebook Login with Google