Log in

One click and you are in

Login with Facebook Login with Google

Why sign up and log in

Guitar Tabs Explorer
Misc Traditional guitar tabs for Will the circle be unbroken

Will The Circle Be Unbroken tab by Misc Traditional

Misc Traditional guitar tabs for Will the circle be unbroken

Guitar tabs

Tuning: Standard (E A D G B E)

       (A chord diagramC majorC)                             (A chord diagramFF)             (A chord diagramC majorC)
e|-----------------0-------0-------0-----------------------------------------|
B|------1--1---------3--1------------3--1--1-------1-------------------------|
G|-0-2-----------------------------------------------2--0--0-----------------|
D|--------2---2---2---2---2---2---2---2---3---3---3---3---2---2--------------|
A|------3---3---3---3---3---3---3---3-------------------3---3---3------------|
E|--------------------------------------1---1---1---1------------------------|

       (A chord diagramC majorC)                                     (A chord diagramG MajorG)     (A chord diagramC majorC)
e|-----------------0-3--3--0------------0----------0-------------------------|
B|------1--1------------------------13-----1----3-------1--------------------|
G|-0-2-----------------------------------------------------------------------|
D|--------2---2---2---2---2---2---2---2---2---2---0---0----------------------|
A|------3---3---3---3---3---3---3---3---3---3-----------3--------------------|
E|----------------------------------------------3---3------------------------|

Other versions of Will The Circle Be Unbroken

Will the circle be unbrokenChords

Almost there ...

Sign in to get your own page with links to favourite songs and more. You are just one click away...

Login with Facebook Login with Google