Log in

One click and you are in

Login with Facebook Login with Google

Why sign up and log in

Guitar Tabs Explorer
Misc Traditional tabs for What child is this

Guitar tabs

Title: What Child Is This/Green Sleeves
Album: Unknown

This is an easy way to play this great song.

-0-3-5-7-87-5------------------------0-3-5-7-87-5-----------------------------|
--------------7-3-3-5-8-55-4-5-7-4-0--------------7-3-3-5-8-7-5-4-2-4-5-------|
------------------------------------------------------------------------------|
------------------------------------------------------------------------------|
------------------------------------------------------------------------------|
------------------------------------------------------------------------------|
-10-10-9-7-5------------------------10-10-9-7-5-------------------------------|
-------------7-3-3-5-8-55-4-5-7-4-0-------------7-3-3-5-8-7-5-4-2-4-5-5-------|
------------------------------------------------------------------------------|
------------------------------------------------------------------------------|
------------------------------------------------------------------------------|
------------------------------------------------------------------------------|

Almost there ...

Sign in to get your own page with links to favourite songs and more. You are just one click away...

Login with Facebook Login with Google