Log in

One click and you are in

Login with Facebook Login with Google

Why sign up and log in

Guitar Tabs Explorer
Misc Traditional tabs for Staten island hornpipe

Staten Island Hornpipe tab by Misc Traditional

Misc Traditional tabs for Staten island hornpipe

Guitar tabs

with SMTP id <AA05183>; Fri, 30 Jul 1993 13:41:54 -0700
	Fri, 30 Jul 93 15:39:37 CDT
X-St-Vmsmail-To: @$69$DUA0:[ALS.GRAPHICS7]DLIST2.TXT

Here's Staten Island Hornpipe. It's in the key of A chord diagramD MajorD major, 2/4 time.
If there are any mistakes or questions, email or post.

Staten Island Hornpipe (traditional)
TAB by Bo Parker (parker_b%aplvax.span@fedex.msfc.nasa.gov)

part 1
    A chord diagramD MajorD

    1   e   &   a   2   e   &   a   1   e   &   a   2   e   &   a
E---------------------------------------2---0-----------------------
B-------------------------------0---3-----------3---3---2---0-------
G---------------0---2-------2-----------------------------------2---
D---4---0---4-------------------------------------------------------
A-------------------------------------------------------------------
E-------------------------------------------------------------------


    A chord diagramG+G               A chord diagramD MajorD               A chord diagramA7A7

    1   e   &   a   2   e   &   a   1   e   &   a   2   e   &   a
E-------------------------------------------------------------------
B---0-----------0---------------------------------------------------
G-------2---0-------2-----------2---0-----------------------2-------
D---------------------------4-----------2---2---2---2---------------
A-------------------------------------------------------------------
E-------------------------------------------------------------------


    A chord diagramD MajorD

    1   e   &   a   2   e   &   a   1   e   &   a   2   e   &   a
E---------------------------------------2---0-----------------------
B-------------------------------0---3-----------3---3---2---0-------
G---------------0---2-------2-----------------------------------2---
D---4---0---4-------------------------------------------------------
A-------------------------------------------------------------------
E-------------------------------------------------------------------

                                   ___________
                                   |1
    A chord diagramD MajorD               A chord diagramA7A7              A chord diagramD MajorD

    1   e   &   a   2   e   &   a   1   e   &   a   2   e   &   a
E-------------------0---2---3---0---2-------2-------2---------------
B---3-------2---3---------------------------3-------3---------------
G-----------------------------------------------------------2-------
D-------------------------------------------------------------------
A-------------------------------------------------------------------
E-------------------------------------------------------------------

   ___________
   |2
    A chord diagramD MajorD

    1   e   &   a   2   e   &   a
E---2-------2-------2-------2---3---
B-----------3-------3---------------
G-----------------------------------
D-----------------------------------
A-----------------------------------
E-----------------------------------


part 2
    A chord diagramD MajorD               A chord diagramA7A7              A chord diagramD MajorD               A chord diagramA7A7

    1   e   &   a   2   e   &   a   1   e   &   a   2   e   &   a
E---5-------2---5---3-------0---3---2-----------2---0---------------
B-------------------------------------------3-----------2-----------
G-----------------------------------------------------------2-------
D-------------------------------------------------------------------
A-------------------------------------------------------------------
E-------------------------------------------------------------------


    A chord diagramC majorC

    1   e   &   a   2   e   &   a   1   e   &   a   2   e   &   a
E---0-------0-------0---1---3---0---0-------0-------0---1---3---0---
B---1-------1-----------------------1-------1-----------------------
G-------------------------------------------------------------------
D-------------------------------------------------------------------
A-------------------------------------------------------------------
E-------------------------------------------------------------------


    A chord diagramD MajorD               A chord diagramA7A7              A chord diagramD MajorD               A chord diagramA7A7

    1   e   &   a   2   e   &   a   1   e   &   a   2   e   &   a
E---5-------2---5---3-------0---3---2-----------2---0---------------
B-------------------------------------------3-----------2-----------
G-----------------------------------------------------------2-------
D-------------------------------------------------------------------
A-------------------------------------------------------------------
E-------------------------------------------------------------------

                                   ___________
                                   |1
    A chord diagramD MajorD               A chord diagramA7A7              A chord diagramD MajorD

    1   e   &   a   2   e   &   a   1   e   &   a   2   e   &   a
E-------------------0---2---3---0---2-------2-------2-------2---3---
B---3-------2---3---------------------------3-------3---------------
G-------------------------------------------------------------------
D-------------------------------------------------------------------
A-------------------------------------------------------------------
E-------------------------------------------------------------------


   ___________
   |2
    A chord diagramD MajorD

    1   e   &   a   2   e   &   a
E---2-------2-------2---------------
B-----------3-------3---------------
G---------------------------2-------
D-----------------------------------
A-----------------------------------
E-----------------------------------


Enjoy

-Bo Parker
parker_b%aplvax.span@fedex.msfc.nasa.gov

I do not speak for my employer, whoever that is.

``...the razor inside, sir...jerk the handle...

Almost there ...

Sign in to get your own page with links to favourite songs and more. You are just one click away...

Login with Facebook Login with Google