Log in

One click and you are in

Login with Facebook Login with Google

Why sign up and log in

Guitar Tabs Explorer
Misc Traditional tabs for Romance

Guitar tabs

(composer unknown)

                             ROMANCE

Start hearing the music from some records and listen
how the tempo is tamed in the seqvences-relaxed and
beutifull!
Well here´s what my ears told me-it should be the
right way to play it- Mail me if u don´t agree and
even so if you think it´s the right right way to play
at dannimorck@yahoo.dk

        Enjoy!           -Tabbed 6/2 2002
Intro:
E-0-----0-----0-----0----|
H~--0-----0-----0-----0--|
G-----0-----0-----0-----0|X2 times and then fading out
D------------------------|
A------------------------|
E-0----------------------|

A: Played to times

E-7-----7-----7-----|-7-----5-----3-----|-3-----2-----0-----|
H---0-----0-----0---|---0-----0-----0---|---0-----0-----0---|
G-----0-----0-----0-|-----0-----0-----0-|-----0-----0-----0-|
D-------------------|-------------------|-------------------|
A-------------------|-------------------|-------------------|
E-0-----------------|-0-----------------|-0-----------------|


E-0-----3-----7-----|-12----12----12----|-12----10----8-----|
H---0-----0-----0---|----0-----0----0---|---0-----0-----0---|
G-----0-----0-----0 |------0-----0----0-|-----0-----0-----0-|
D-------------------|-------------------|-------------------|
A-------------------|-------------------|-------------------|
E-0-----------------|-0-----------------|-0-----------------|

E-8-----7-----5-----|-5-----7-----8-----|-7-----8-----7-----|
H---5-----5-----5---|---5-----5-----5---|---7-----7-----7---|
G-----5-----5-----5-|-----5-----5-----5-|-----8-----8-----8-|
D-------------------|-------------------|-------------------|
A-0-----------------|-5-----------------|-------------------|
E-------------------|-------------------|-7-----------------|


E-11----8-----7-----|-7-----5-----3-----|-3-----2-----0-----|
H---7-----7-----7---|---0-----0-----0---|---0-----0-----0---|
G-----8-----8-----8-|-----0-----0-----0-|-----0-----0-----0-|
D-------------------|-------------------|-------------------|
A-------------------|-------------------|-------------------|
E-7-----------------|-0-----------------|-0-----------------|


E-2-----2-----2-----|-2-----3-----2-----|-0-----0-----0-----|-0|-
H---1-----1-----1---|---0-----0-----0---|---0-----0-----0---|-0|-
G-----2-----2-----2-|-----2-----2-----2-|-----0-----0-----0-|-0|-
D-------------------|-------------------|-2-----------------|--|-
A-0-----------------|-2-----------------|-------2-----------|--|-
E-------------------|-------------------|-------------3-----|-0|-

-------------------------------PART-B-----------------------------

E-4-----4-----4-----|-4-----2-----0-----|-------------------|
H---0-----0-----0---|---0-----0-----0---|-5-----4-----4-----|
G-----1-----1-----1-|-----1-----1-----1-|---2-----2-----2---|
D-------------------|-------------------|-----4-----4-----4-|
A-------------------|-------------------|-0-----------------|
E-0-----------------|-0-----------------|-------------------|


E-4-----3-----4-----|-9-----9-----9-----|-9-----11----9-----|
H---2-----2-----2---|---7-----7-----7---|---7-----7-----7---|
G-----4-----4-----4-|-----8-----8-----8-|-----8-----8-----8-|
D-------------------|-------------------|-------------------|
A-2-----------------|-------------------|-------------------|
E-------------------|-7-----------------|-7-----------------|


E-9-----7-----7-----|-7-----9-----11----|-12----12----12----|
H---9-----9-----9---|---9-----9-----9---|---9-----9-----9---|
G-----9-----9-----9-|-----9-----9-----9-|-----9-----9-----9-|
D-------------------|-------------------|-------------------|
A-------------------|-------------------|-------------------|
E-0-----------------|-0-----------------|-0-----------------|


E-12----11----10----|-9-----9-----9-----|-9-----7-----5-----|
H---9-----9-----9---|---5-----5-----5---|---5-----7-----7---|
G-----9-----9-----9-|-----6-----6-----6-|-----6-----6-----6-|
D-------------------|-------------------|-------------------|
A-------------------|-------------------|-------------------|
E-0-----------------|-5-----------------|-5-----------------|


E-4-----4-----4-----|-4-----5-----2-----|-0-----0-----0-----|-0|
H---0-----0-----0---|---4-----4-----4---|---0-----0-----0---|--|
G-----1-----1-----1-|-----4-----4-----4-|-----1-----1-----1-|-1|
D-------------------|-------------------|-2-----------------|--|
A-------------------|-2-----------------|-------2-----------|--|
E-0-----------------|-------------------|-------------4-----|-0|
Back to part A chord diagramA augmentedA and then end on:
E-12|
H-12|
G-12|
D---|
A---|
E-0-|

Other versions of Romance

Romance de espanaTabs

Almost there ...

Sign in to get your own page with links to favourite songs and more. You are just one click away...

Login with Facebook Login with Google